Razorback - Nakaturo Syo Chords & Tabs

 

Nakaturo Syo Chords & Tabs

Razorback Chords & Tabs

Version: 1 Type: Tab 0 ratings
1 star 2 stars 3 stars 4 stars 5 stars
comments

Nakaturo Syo Tab

"Nakaturo 'syo" by Razorback
transcribed by freongang



intro:

walang nakakaalam......
e-0-0-0-0-0-0-0-0-0-0-0-0------|
b-0-0-0-0-0-0-0-0-0-0-0-0------|
g-2-2-2-2-2-2-2-2-2-2-2-2------|
d-3-3-3-3-3-3-3-3-3-3-3-3------|
a-0-0-0-0-0-0-0-0-0-0-0-0------|
e-0-0-0-0-0-0-0-0-0-0-0-0------|


sayo..... x2
e-0-0-0-0-0-0-0-0--0-0-0-0-0-0-0-0---|
b-2-2-2-2-2-2-2-2--0-0-0-0-0-0-0-0---|
g-2-2-2-2-2-2-2-2--1-1-1-1-1-1-1-1---|
d-2-2-2-2-2-2-2-2--2-2-2-2-2-2-2-2---|
a-0-0-0-0-0-0-0-0--0-0-0-0-0-0-0-0---|
e-0-0-0-0-0-0-0-0--0-0-0-0-0-0-0-0---|


e----------------------------------|
b----------------------------------|
g----------------------------------|
d----------------------------------|
a--^--------^--------^-------------|
e-2-3-2-0--2-3-2-0--2-3-2-0--5-----|
[ Tab from: http://www.guitartabs.cc/tabs/r/razorback/nakaturo_syo_tab.html ]
araw araw kang sasambahin....
e---------------------------------|
b---------------------------------|
g---------------------------------|
d--^--------^--------^------------|
a-4-5-4-0--4-5-4-0--4-5-4-0--7----|
e-2-3-2-0--2-3-2-0--2-3-2-0--5----|

isang araw ay......
e------------------------------------|
b------------------------------------|
g------------------------------------|
d-7-7-7-7-7-7-7-7--3-3-3-3-3-3-3-3---|
a-7-7-7-7-7-7-7-7--3-3-3-3-3-3-3-3---|
e-5-5-5-5-5-5-5-5--1-1-1-1-1-1-1-1---|


sayo..... x2
e-0-0-0-0-0-0-0-0--0-0-0-0-0-0-0-0---|
b-2-2-2-2-2-2-2-2--0-0-0-0-0-0-0-0---|
g-2-2-2-2-2-2-2-2--1-1-1-1-1-1-1-1---|
d-2-2-2-2-2-2-2-2--2-2-2-2-2-2-2-2---|
a-0-0-0-0-0-0-0-0--0-0-0-0-0-0-0-0---|
e-0-0-0-0-0-0-0-0--0-0-0-0-0-0-0-0---|

visit me at: freongang_81@yahoo.com
               freongang_08@yahoo.com
Comments