Raymond Van Het Groenewoud - Twee Meisjes Chords & Tabs

 

Twee Meisjes Chords & Tabs

Raymond Van Het Groenewoud Chords & Tabs

Version: 1 Type: Tab 0 ratings
1 star 2 stars 3 stars 4 stars 5 stars
comments

Twee Meisjes Tab

Raymond Van Het Groenewoud - Twee Meisjes (solo)

|----------------------------------------------------|
|-----------------7h8-10r-10b-10b-10-9---------------|
|---7~~-------7h10---------------------10-8-7--------|
|---------------------------------------------7------|
|-----------------------------------------------5r---|
|-----------------------------------------------0r---|

|--10-10---10---10---10-10---10-10---10-10b---10bp9----------------|
|-------------------------------------------------10-10---9--------|
|--------7----------7-------7-------7-----------------------12-10--|
|------------------------------------------------------------------|
|------------------------------------------------------------------|
|------------------------------------------------------------------|

|---------------------------------------------------------------------|
|---------------------------------------------------------------------|
|--12-12br---12br-13br-12br-13b-13br-13br-13bp12r-13bp12r-13b-12h13b--|
|---------------------------------------------------------------------|
|---------------------------------------------------------------------|
|---------------------------------------------------------------------|

|-----------------------|
|-----------------------|
|-12-14-12--------------|
|---------14-12-12\\\0--|
|-----------------------|
|-----------------------|
[ Tab from: http://www.guitartabs.cc/tabs/r/raymond_van_het_groenewoud/twee_meisjes_tab.html ]
|--------------------------------------------------------------------|
|-------13-13-------13-13------13-13------13-13------13-13-----13b---|
|--12h14-------12h14------12h14------12h14------12h14-----12h14------|
|--------------------------------------------------------------------|
|--------------------------------------------------------------------|
|--------------------------------------------------------------------|

|-----------------------------------------------------------------------|
|-13-14-15-18b-18-17-18p17---17h18---17h18--17h18--17h18---17h18-20b----|
|-------------------------19------19------19-----19-----19--------------|
|-----------------------------------------------------------------------|
|-----------------------------------------------------------------------|
|-----------------------------------------------------------------------|

|-------------------------------------------------------------------------|
|-20b-20-18-20b-20-20b-20b-20b-20b-20b-20b-20b-20b-20b-20-18-17-----------|
|--------------------------------------------------------------20-19------|
|--------------------------------------------------------------------19---|
|-------------------------------------------------------------------------|
|-------------------------------------------------------------------------|

|-----------------------------------|
|-----------------------------------|
|-----------------------------------|
|-----------------------------------|
|-----------------1212121212121212--|
|-101010101010----------------------|

|----------------------------------------------------------------|
|------------------------------------------------/15-15-14-16b---|
|------------------------------------14-15-14-15-----------------|
|-------------------12-14-15p14-14h15----------------------------|
|--12~~-12-12h13-12----------------------------------------------|
|----------------------------------------------------------------|

|--------------------|
|-15-16b-16b---------|
|------------15bf----|
|--------------------|
|--------------------|
|--------------------|
Comments