Ray Charles - Whatd I Say Chords & Tabs

 

Whatd I Say Chords & Tabs

Ray Charles Chords & Tabs

Version: 2 Type: Tab 0 ratings
1 star 2 stars 3 stars 4 stars 5 stars
comments

Whatd I Say Tab

ray charles
what'd i say
tabbed out by:timmy b.
bare with me i figured this out buy watching the movie
so i hope it sounds write to you!!!
intro
[----------------------------------------------------------------------------|
[----------------------------------------------------------------------------|
[----------------------------------------------------------------------------|
[----------------------------------------------------------------------------|
[-------------5--7----------5--7-----------5--7------------5--7--------------|
[---0---7--7-------0---7--7-------0---7--7-------0---7--7--------------------|


[----------------------------------------------------------------------------|
[----------------------------------------------------------------------------|
[----------------------------------------------------------------------------|
[-------------5--7-----------5--7--------------------------------------------|
[---0---7--7-------0---7--7------------------5--7------------5--7------------|
[-----------------------------------0---7--7-------0---7--7------------------|


[----------------------------------------------------------------------------|
[-----------------------------------------------------------9---9---9--------|
[-----------------------------------------------------------8---8---8--------|
[--------------7--9------------5--7-------------------------9---9---9--------|
[--------9--9--------0---7--7------------------5--7---------x---x---x--------|
[----7--------------------------------0---7--7----------0---7---7---7--------|
[ Tab from: http://www.guitartabs.cc/tabs/r/ray_charles/whatd_i_say_tab_ver_2.html ]
now heres the rythm you have to follow the beat of the song
do this twice then go to the next
transition
[-------------------------------|
[-------------------------------|
[------7--77------77------7-----|
[------6--66------66------6-----|
[------7--77------77------7-----|
[--0---0--00--0---00---0--0-----|
do twice just like the top
[-------------------------------|then back to
[------8--88------88------8-----|the top
[------6--66------66------6-----|
[------7--77------77------7-----|
[--0---0--00--0---00---0--0-----|
[-------------------------------|
do this just once
[-------------------------------|
[-10--10-1010-10-1010--10-10----|
[--8---8--88--8---88---8--8-----|
[--9---9--99--9---99---9--9-----|
[--x---x--xx--x---xx---x--x-----|
[--7---7--77--7---77---7--7-----|

do this just once
[-------------------------------|
[------7--77------77---7--7-----|
[------6--66------66---6--6-----|
[------7--77------77---7--7-----|
[--0---0--00--0---00---0--0-----|
[-------------------------------|

[----------------------------------------------------------------------------|
[-------------------10--10-10------------------------------------------------|
[------7---5-4-------8---8-8-------------------------------------------------|
[------6---4-3-------9---9-9-------------------------------------------------|
[------7---5-4-----------x---------------------------------------------------|
[---0--0---0-0----7----------------------------------------------------------|
repeat this and have fun.
my mom said its pretty cool how i learned this by watching the movie, but then agian 
benn playing for 11years and i'm only 16 so have fun with what took me five minuets to 
and two to learn. tim bell"""""""";';';';';
Comments