Ray Charles - Whatd I Say Chords & Tabs

 

Whatd I Say Chords & Tabs

Ray Charles Chords & Tabs

Version: 1 Type: Tab 0 ratings
1 star 2 stars 3 stars 4 stars 5 stars
comments

Whatd I Say Tab

Ray Charles
What'd I say
Tabbed by Jjmig (spam)
Sfichtner@trevornet.org
[ Tab from: http://www.guitartabs.cc/tabs/r/ray_charles/whatd_i_say_tab.html ]
Intro
e|---------------------------------------------------------------------|
B|---------------------------------------------------------------------|
G|---------------------------------------------------------------------|
D|--------0-2--------0-2--------0-2---------0-2------------------------|
A|----2-2--------2-2--------2-2---------2-2----------------------------|
E|--0----------0----------0-----------0--------------------------------|
then
e|---------------------------------------------------------------------|
B|---------------------------------------------------------------------|
G|--------0-2------0-2-------------------------------------------------|
D|----2-2------2-2----------0-2-------0-2--------0-2---------0-2-------|
A|--0--------0----------2-2-------2-2--------2-2---------2-2-----------|
E|--------------------0---------0----------0-----------0---------------|
Then go even higher
e|---------------------------------------------------------------------|
B|--------1-3----------------------------------------------------------|
G|----2-2-----------0-2------------------------------------------------|
D|--0-----------2-2----------0-2-------0-2-----------------------------|
A|------------0-----------2-2------2-2---------------------------------|
E|----------------------0--------0-------------------------------------|
 Now the rythem changes
e|---------------------------------------------------------------------|
B|---------------------------------------------------------------------|
G|-------------------2-2-2-2-2-----------------------------------------|
D|-----2-2-2-2-2------2-2-2-2---2-2-2-2-2------------------------------|
A|------2-2-2-2----0-------------2-2-2-2-------------------------------|
E|--0--------------------------0---------------------------------------|
The rest is piano stuff so I can't get it put this is good enough, and right so bo ya!
Comments