Raventhrone - Among Whispering Walls Chords & Tabs

 

Among Whispering Walls Chords & Tabs

Raventhrone Chords & Tabs

Version: 1 Type: Tab 0 ratings
1 star 2 stars 3 stars 4 stars 5 stars
comments

Among Whispering Walls Tab

Raventhrone - Among Whispering Walls
From the album "Endless Conflict Theorem"
Tabbed out by Ken Hoffmeyer (TheOldMansChild@aol.com)

Standard tuning
. = palm mute

This song is pretty simple, and most of the variances
(such as Riff C.2 to C.3) are just changes in the muting
patterns.  OH yeah, and I can't tell if Riff A is correct
as is, or if all 3 notes are played the whole time.  It
just doesn't sound like 3 strings to me, but it could be.
Have fun with this song cuz Raventhrone kicks ass!

 Riff A (0:00-0:43)
|------------------------------|
|------------------------------|
|------------------------------|
|-7--7-7-7--7---3--3-3-3--3----|
|-7777777777777533333333333335-|
|-5555555555555311111111111113-|
   .. . . .. ... .. . . .. ...

 Lead #1 played over Riff A (0:07-0:14)
|------------------------------|
|------------------------------|
|----910-910-12----------------|
|-7------------10--9-10-9--7-5-|
|------------------------------|
|------------------------------|
 Those are 10's and 12's

 Lead #2 (0:14-0:29)
|------------------------------------|
|------------------------------------|
|-------------------------------9-10-|
|-9-7-7-10-7-7-9-7-10-7-7-9-7-7------|  Play 4 times
|------------------------------------|
|------------------------------------|
 Spaced out for easier reading

 Lead #3 (0:29-0:43)
|-----------------------------------|
|-----------------------------------|
|----------------7------------------|
|-10--9-10-7--910-10--9-10-7--10910-|  Play 2 times
|-----------------------------------|
|-----------------------------------|

 Riff B (0:43-1:05)
|----------------------------------|
|----------------------------------|
|----------------------------------|
|-77777777777777773333333333333333-|
|-77777777777777773333333333333333-|
|-55555555555555551111111111111111-|

 Repeat Riff A (1:06-1:50)
 Repeat Lead #2 over Riff A (1:13-1:28)
 Repeat Riff B (1:50-1:57)
[ Tab from: http://www.guitartabs.cc/tabs/r/raventhrone/among_whispering_walls_tab.html ]
 Riff C (1:57-2:12)
|------------------------------------------------------------------|
|------------------------------------------------------------------|
|-5------------55--------------------------------------------------|
|-5------------555----------------3---------------7-------5--------|
|-3------------335----------------3---------------7-------5--------|
|----------------3--------------331-------------115-----553--------|
               ..               ..              ..      ..
 
 Riff C.1 (2:12-2:26)
|------------------------------------------------------------------|
|------------------------------------------------------------------|
|-5555555555555555-------------------------------------------------|
|-5555555555555555555555555555555533333333333333337777777755555555-|
|-3333333333333333555555555555555533333333333333337777777755555555-|
|-----------------333333333333333311111111111111115555555533333333-|

 Riff C.2 (2:26-2:56)
|------------------------------------------------------------------|
|------------------------------------------------------------------|
|-5555555555555555-------------------------------------------------|
|-5555555555555555555555555555555533333333333333337777777755555555-|
|-3333333333333333555555555555555533333333333333337777777755555555-|
|-----------------333333333333333311111111111111115555555533333333-|
   ............... ............... ............... ....... .......

 Lead over Riff C.2 (2:41-2:56)
|--------------------------------------------------------|
|--------------------------------------------------------|
|-----7-9----7-9--------------------------7-9-7-----7----|
|-10------10-----9--9-7-5---7--7-9-10--10-------10-------|
|--------------------------------------------------------|
|--------------------------------------------------------|

 Repeat Riff C.1 (2:56-3:11)
 Lead over Riff C.1 (2:56-3:11)
|----------------------------------------------------|
|----------------------------------------------------|
|-9--9-9-12-10-9-10-7----------------------7-9-1097--|
|----------------------10-9--5-7--9-10--10-----------|
|----------------------------------------------------|
|----------------------------------------------------|

 Repeat Riff C.2 (3:11-3:25)
 Repeat Riff C.1 (3:25-3:40)
 Keyboard Interlude
 
 Repeat Riff C.1 (4:09-4:24)
 Lead over Riff C.1 (4:10-4:24)
|----------------------------------------------------|
|----------------------------------------------------|
|-10--9-7----7-9----7----------------------7-9---7---|
|---------10-----10-----109--5-7--9-10--10-----------|
|----------------------------------------------------|
|----------------------------------------------------|

 Repeat Riff C.2 (4:24-4:39)

 Riff C.3 (4:39-End)
|------------------------------------------------------------------|
|------------------------------------------------------------------|
|-5555555555555555-------------------------------------------------|
|-5555555555555555555555555555555533333333333333337777777755555555-|
|-3333333333333333555555555555555533333333333333337777777755555555-|
|-----------------333333333333333311111111111111115555555533333333-|
   ............... ....... ....... ....... ....... ....... .......

 The difference is in the muting
Comments