Raven - All For One Chords & Tabs

 

All For One Chords & Tabs

Raven Chords & Tabs

Version: 1 Type: Tab 0 ratings
1 star 2 stars 3 stars 4 stars 5 stars
comments

All For One Tab

   
----------------------------------------------------------------------------
			     ALL FOR ONE - Raven
----------------------------------------------------------------------------
Tabbed by: Benjamin Gheysels
Date: 2005-7-13
Album: All for one

Tuning: standard tuning

| h  hammer-on
| p  pull-off
| ~  vibrato
| p.s. Pick scrape
| .  Mute note


I couldn't find a tab for this great '80ties heavy metal song, so I decided 

to tab it myself. It's not completely accurate, but it's close.


Play with distortion. I've added between brackets when a riff starts.


Intro riff:
e|-------------------------------------------------------------------------|
B|-------------------------------------------------------------------------|
G|-------------------------------------------------------------------------|
D|---5-----5-----5------5-----2------------------------2-2-------2-2-------|
A|---3-----5-----3------5-----2------------------------2-2-stop--2-2-stop--|
E|---------3------------3-----0---0 (p.s.)-------------0-0-------0-0-------|
  (Let chords ring)		 	   (drum roll)


Riff 1 (13") + (1'05") + (2'38")
e|-------------------------------------------------------------------------|
B|-------------------------------------------------------------------------|
G|--------------2-2----------------2-2-2-2---------------------------------|
D|---2-2--------2-2-stop---2-2-2---2-2-2-2---7--7----7-7----7--------------|
A|---2-2-stop---0-0--------2-2-2---0-0-0-0---5--7----7-7----5-stop---------|
E|---0-0-------------------0-0-0----------------5----5-5-------------------|
			     . .     . . .	     . . 

e|-------------------------------------------------------------------------|
B|-------------------------------------------------------------------------|
G|--------------2-2----------------2-2-2-2-2-2-----------------------------|
D|---2-2--------2-2-stop---2-2-2---2-2-2-2-2-2-----5-----------------------|
A|---2-2-stop---0-0--------2-2-2---0-0-0-0-0-0-----5-----------------------|
E|---0-0-------------------0-0-0-------------------3-----------------------|
			     . .     . . . . .

Riff 2 (31") + (1'22") + (2'55"): guitar 1       --- mark
e|------------------------------------  _________| ------------------------|
B|------------------------------------ | ----------------------------------|
G|------------------------------------ | ----------------------------------|
D|---7---7---5---5-----7---7---5---5---*-7-7-7--7-7-7--5-5-5--5-5-5---7---6|
A|---5---7---3---5-----5---7---3---5---*-5-5-5--7-7-7--3-3-3--5-5-5---5---4|
E|-------5-------3---------5-------3---*--------5-5-5---------3-3-3--------|
  (let 	  these   chords	ring)	  . .    . .    . .    . .


  guitar 2 plays the same as guitar 1, but plays this fill at the mark
e|-------------------------------------------------------------------------|
B|-------------------------------------------------------------------------|
G|-------------------------------------------------------------------------|
D|--------7-7-9-10-9------------10-10-10----------12hold-11hold------------|
A|-------------------7-7-9-10-9----------10-10-10--------------------------|
E|-------------------------------------------------------------------------|

[ Tab from: http://www.guitartabs.cc/tabs/r/raven/all_for_one_tab.html ]
Riff 3 (47") + (1'39") + (3'12"): chorus. Play this 3 times
e|-------------------------------------------------------------------------|
B|-------------------------------------------------------------------------|
G|---?-?-------------------------------------------------------------------|
D|---3-4-5--5-5-5----5-5-7--7-7-7------------------------------------------|
A|---3-4-5--5-5-5----5-3-5--5-5-5------------------------------------------|
E|---1-2-3--3-3-3----3-----------------------------------------------------|
	    . . .           . . .
(not sure about first 2 chords)


Then play this (at he end of the song, you don't play the final chord):
e|-------------------------------------------------------------------------|
B|-------------------------------------------------------------------------|
G|---?-?-------------------------------------------------------------------|
D|---3-4-5--5-5-5-5-5-5-5-----7--------------------------------------------|
A|---3-4-5--5-5-5-5-5-5-5-----7-stop---------------------------------------|
E|---1-2-3--3-3-3-3-3-3-3-----5--------------------------------------------|
	    . . . . . . .


Solo (1'57"): listen to the song to get the timing right
e|-------------------------------------------------------------------------|
B|-------------------------------------------------------------------------|
G|---5h7-7-7-7-7\-----------5hold------------------------------------------|
D|--------------------------------7-5-7-5----------------------------------|
A|----------------------------------------7-5------------/12--7~7~---------|
E|------------------0/12\---------------------8-7-3/5~---------------------|
		    |
	(switch your toggler on and off)

e|-------------------------------------------------------------------------|
B|-------------------------------------------------------------------------|
G|-------9-7--------------7hold--------------------------------------------|
D|---7-9-----9hold-10p9p7-------9-----7hold--------------------------------|
A|---------------------------------10--------------------------------------|
E|-------------------------------------------------------------------------|

e|-------------------------------------------------------------------------|
B|-------------------------------------------------------------------------|
G|-------------------------------------------------------------------------|
D|-10-12-14-12-14-12-10-9-12-10-12-14hold---10-12-14-12-14-12-10-9-12-12-12|
A|-------------------------------------------------------------------------|
E|-------------------------------------------------------------------------|

e|-------------------------------------------------------------------12~---|
B|-------------------------------------------------------------------------|
G|-------------------------------------------------------------------------|
D|--10-12-14-12-14-12-10-9-12-10-12-14hold---10-12-14-12-14-15-14-15-------|
A|-------------------------------------------------------------------------|
E|-------------------------------------------------------------------------|

That's it! Enjoy!


Song structure:

- Intro riff
- Riff 1
- Riff 2
- Riff 3 (chorus)
- Riff 1
- Riff 2
- Riff 3 (chorus)
- Solo
- Riff 1
- Riff 2
- Riff 3 (chorus)

============================================================================
Comments