Rave - Rotten Chords & Tabs

 

Rotten Chords & Tabs

Rave Chords & Tabs

Version: 1 Type: Tab 0 ratings
1 star 2 stars 3 stars 4 stars 5 stars
comments

Rotten Tab

Very close to what ND plays!


Intro/Verse:
e--------------------------------
b--------------------------------
g--------------------------------
d--------------------------------
a---5---5---5---5---5---5---5---5
e-3---3---1---1---0---0---2---2--


[ Tab from: http://www.guitartabs.cc/tabs/r/rave/rotten_tab.html ]
Chorus (Play Each Chord 8 times):
e--------------------------------
b--------------------------------
g--------------------------------
d---5---9---8---7----------------
a---5---9---8---7----------------
e---3---7---6---5----------------

If you have any questions, are looking for lyrics or mp3's of (Rave) 
(Cuz I know they're hard to find, trust me I know), email me at
storm_420@hotmail.com with something in the subject line so I know
its concerning these tabs.
Comments