Rauli Badding Somerjoki - Paratiisi Chords & Tabs

 

Paratiisi Chords & Tabs

Rauli Badding Somerjoki Chords & Tabs

Version: 2 Type: Tab 0 ratings
1 star 2 stars 3 stars 4 stars 5 stars
comments

Paratiisi Tab

Badding - Paratiisi - Guitar Tablature

Artist: Rauli "Badding" Somerjoki
Song: Paratiisi

This is 100% right because Rauli himself show me how to play this song. It's very easy to play and you can 
the sound of Badding in your heart when you're playing this song. I made this tablature because the 
Badding tablature is bullshit and if you don't like Badding you can eat your guitar.


E |---------------------------------------------------------|
B |---------------------------------------------------------|
G |---------------------------------------------------------|
D |--5---4---2---2---2---4---2---0-------------------0------|
A |----------------------------------3---2---2---2-------2--|
E |---------------------------------------------------------|

[ Tab from: http://www.guitartabs.cc/tabs/r/rauli_badding_somerjoki/paratiisi_tab_ver_2.html ]
E |---------------------------------------------------------|
B |---------------------------------------------------------|
G |---------------------------------------------------------|
D |------------------0---5---4---2---1---2---4--------------|
A |--2---0-------2------------------------------------------|
E |----------3----------------------------------------------|


E |---------------------------------------------------------|
B |---------------------------------------------------------|
G |---------------------------------------------------------|
D |--5---4---2---2---2---4---2---0-------------------0------|
A |----------------------------------3---2---2---2-------2--|
E |---------------------------------------------------------|


E |---------------------------------------------------------|
B |---------------------------------------------------------|
G |---------------------------------------------------------|
D |---------------------------------------------------------|
A |--2---3---5---2---0-------0------------------------------|
E |----------------------3-------3---0----------------------|


There it was. BADDING IS THE KING!!!
Comments