Ratt - You Think Youre Tough Chords & Tabs

 

You Think Youre Tough Chords & Tabs

Ratt Chords & Tabs

Version: 1 Type: Tab 0 ratings
1 star 2 stars 3 stars 4 stars 5 stars
comments

You Think Youre Tough Tab

   
Tuning: 1/2 step down

-------------------------------------|
-------------------------------------|
-------------------------------------|
-------9-9-------9-9--7-7-7-7---7/9--|
-------7-7-------7-7--4-5-4-5---5/7--|
--0-0-------0-0----------------------|

--------------------------------------|back to the top
--------------------------------------|
--------------------------------------|
-------9-9-------9-9--7-7-7-7---------|
-------7-7-------7-7--4-5-4-5---------|
--0-0-------0-0----------------3-2-1--|

After playing about 10x play this
-----------------------|
-----------------------|
----0--------0---------|
------4-0------4-0-----|
--3--------5-----------|
-----------------------|

-------------------------------------|
-------------------------------------|
-------------------------------------|
-------9-9-------9-9--7-7-7-7---7/9--|
-------7-7-------7-7--4-5-4-5---5/7--|
--0-0-------0-0----------------------|
[ Tab from: http://www.guitartabs.cc/tabs/r/ratt/you_think_youre_tough_tab.html ]
--------------------------------------|
--------------------------------------|keep playing this (?x)
--------------------------------------|
-------9-9-------9-9--7-7-7-7---------|
-------7-7-------7-7--4-5-4-5---------|
--0-0-------0-0----------------3-2-1--|
                                        \/
---------------------------------------|---|
---------------------------------------|---|
---5----------------7-----------------.|-7-|
---5-------2-3-2----7-------4-5-4-----.|-7-|
---3---3-5-------3--5---5-7-------5----|-5-|
---------------------------------------|---|

Solo

--10-10~~--10-12-10-------------------------------|
--------------------12-10-------------------------|
--------------------------12-9--------------------|
-------------------------------12-9---------------|
------------------------------------12-10---------|
------------------------------------------12~~~~--|

--10-12-10------------------------12b---------------------------|
-----------10-12-10---------10-12-----12-10---------------------|
--------------------12-9-12-----------------12ph-9-12ph-9------.|
-----------------------------------------------------------12~~.|
----------------------------------------------------------------|
----------------------------------------------------------------|

--22b(24)~~~~~~~/---|
--------------------|
--------------------|
--------------------|
--------------------|
--------------------|

Then back to the beginning

Notation used:
\/-tremelo pick
/-slide
~-vibrato
b-bend
ph-pinch harmonic
(24)-ghost note
Comments