Ratt - You Think Youre Tough Chords & Tabs

 

You Think Youre Tough Chords & Tabs

Ratt Chords & Tabs

Version: 1 Type: Bass Tab 0 ratings
1 star 2 stars 3 stars 4 stars 5 stars
comments

You Think Youre Tough Bass Tab

   
-------------------------------------------------------------------------------
                             You Think You're Tough - Ratt
-------------------------------------------------------------------------------

From the Album: Ratt EP (1983)

Tabbed by: ChrisT

Tuning: Eb,Ab,Db,Gb

Intro
Gb|------------------------------------------------------------|
Db|------------------------------------------------------------|
Ab|------------------------------------------------------------|
Eb|---0------------------------------------------------3-2-1---|

Gb|------------------------------------------------------------|
Db|------------------------------------------------------------|
Ab|---------------5-5-4-5---4-5-7-------------5-5-4-5----------|
Eb|---0-0---0-0-------------------0-0---0-0------------3-2-1---|

Gb|------------------------------------------------------------|
Db|------------------------------------------------------------|
Ab|---------------5-5-4-5---4-5-7-------------3--------5-------|
Eb|---0-0---0-0-------------------0-0---0-0--------------------|

Verse 1                                                 Repeat x3
Gb|--------------------------------------------------------------|
Db|o------------------------------------------------------------o|
Ab|o---------------5-5-4-5---4-5-7-------------5-5-4-5----------o|
Eb|----0-0---0-0-------------------0-0---0-0------------3-2-1----|

Gb|-------------------------------------------------------------|
Db|-------------------------------------------------------------|
Ab|---------------5-5-4-5---4-5-7-------------5-5-4-5-----3-3---|
Eb|---0-0---0-0-------------------0-0---0-0---------------------|

Gb|----------------------------------------------------------------------|
Db|----------------------------------------------------------------------|
Ab|---------------5-----------7-5-4----3---------------5-5-5-5-5-5-5-5---|
Eb|---0---2---3-------3---5---------------0---2---3----------------------|

Gb|-----------------|
Db|-----------------|
Ab|-----------------|
Eb|---------3-2-1---|

Chorus
Gb|------------------------------------------------------------|
Db|------------------------------------------------------------|
Ab|---------------5-5-4-5---4-5-7-------------5-5-4-5----------|
Eb|---0-0---0-0-------------------0-0---0-0------------3-2-1---|
[ Tab from: http://www.guitartabs.cc/tabs/r/ratt/you_think_youre_tough_btab.html ]
Gb|------------------------------------------------------------|
Db|------------------------------------------------------------|
Ab|---------------5-5-4-5---4-5-7-------------3-3------3-3-----|
Eb|---0-0---0-0-------------------0-0---0-0--------------------|

Verse 2                                                 Repeat x3
Gb|--------------------------------------------------------------|
Db|o------------------------------------------------------------o|
Ab|o---------------5-5-4-5---4-5-7-------------5-5-4-5----------o|
Eb|----0-0---0-0-------------------0-0---0-0------------3-2-1----|

Gb|-------------------------------------------------------------|
Db|-------------------------------------------------------------|
Ab|---------------5-5-4-5---4-5-7-------------5-5-4-5-----3-3---|
Eb|---0-0---0-0-------------------0-0---0-0---------------------|

Gb|---------------------------------------------------7-5-4--------------|
Db|----------------------------------------------------------7-5---------|
Ab|---------------5-----------7-5-4---3-------------5------------8-7-5---|
Eb|---0---2---3-------3---5---------------0---2---3----------------------|

Guitar Solo                                                
Gb|--------------------------------------------------------------|
Db|o------------------------------------------------------------o|
Ab|o---------------5-5-4-5---4-5-7-------------5-5-4-5----------o|
Eb|----0-0---0-0-------------------0-0---0-0------------3-2-1----|

Gb|-------------------------------------------------------------|
Db|-------------------------------------------------------------|
Ab|---------------5-5-4-5---4-5-7-------------5-5-4-5--3-3------|
Eb|---0-0---0-0-------------------0-0---0-0---------------------|

Gb|----------------------------------------------------------------------|
Db|----------------------------------------------------------------------|
Ab|---------------5-----------7-5-4----3---------------5-5-5-5-5-5-5-5---|
Eb|---0---2---3-------3---5---------------0---2---3----------------------|

Outro                                            Repeat until end
Gb|--------------------------------------------------------------|
Db|o------------------------------------------------------------o|
Ab|o---------------5-5-4-5---4-5-7-------------5-5-4-5----------o|
Eb|----0-0---0-0-------------------0-0---0-0------------3-2-1----|



| /  slide up
| \  slide down
| h  hammer-on
| p  pull-off
| ~  vibrato
| +  harmonic
| x  Mute note
===============================================================================
Comments