Ratt - Tell The World Chords & Tabs

 

Tell The World Chords & Tabs

Ratt Chords & Tabs

Version: 2 Type: Tab 0 ratings
1 star 2 stars 3 stars 4 stars 5 stars
comments

Tell The World Tab

TELL THE WORLD
RATT


This is first tab I figured out alone.I was kind of angry that only
RATT tab that was easy to find was ROUND AND ROUND so I got my guitar
and tabbed this song out.If you think you can do better,go right
ahead.RATT has awesome songs and they deserve more tabs on the net.

And as far as this song goes, I didnt bother marking timing on it,
just listen to the song,and you should be able to play it.


intro riff

E --------------------------------------------------------|
B --------------------------------------------------------|
G ------------7---------5---------3-----------2--------1--|
D ------------7---------5---------3-----------2--------2--|
A -----0-0--------0-0-------0-0--------0-0-------0-0------|
E --------------------------------------------------------|

E --------------------------------------------------------|
B --------------------------------------------------------|
G --------7----------5---------3---------2----------------|
D --------7----------5---------3---------2-------2-3-3-0--| repeat
A --0-0--------0-0-------0-0--------0-0------0-0----------| both parts
E --------------------------------------------------------| once

intro solo  (with first intro riff as background)
[ Tab from: http://www.guitartabs.cc/tabs/r/ratt/tell_the_world_tab_ver_2.html ]
E --------------------------------------------------------|
B --------------------------------------------------------|
G --------------------------------------------------------|
D ---12~~------7--9--11--12~~----7--9------12--10--11~~---|
A --------------------------------------------------------|
E --------------------------------------------------------|

E -------------------------------------------|
B -------------------------------------------|
G -------------------------------------------|
D ----7--9-----12--9--11--10--11--(8)--------|
A -------------------------------------------|
E -------------------------------------------|
(I think its done with some kind of distortion
but it sounds pretty close on standard setting)


bridge

E -----------------------------|
B -----9--9----------7---------|
G -----7--7----------5---------|
D -----7--7----------5---------|
A -----------------------------|
E -----------------------------|


repeat intro riff untill main riff

\"tell the world!\" main riff

E --------------------------------------------------|
B --------------------------------------------------|
G --------------------------------------------------|
D --------------------3-----------------------3-----|
A --2--2--2--2--------1------2--2--2--2-------3-----|play 4 times
E --0--0--0--0---------------0--0--0--0-------------|

repeat intro riff/intro solo once

repeat intro riff

repeat main riff

bridge

E ------------------------------|
B ---3-----------3--------------|
G ---3-----------3--------------|
D ------------------------------|
A ------------------------------|
E ---------4------------7-------|


solo  (working on it)

repeat main riff 6 times

repreat intro riff twice

and thats it, thats the song.
Comments