Ratt - Lay It Down Chords & Tabs

 

Lay It Down Chords & Tabs

Ratt Chords & Tabs

Version: 1 Type: Tab 0 ratings
1 star 2 stars 3 stars 4 stars 5 stars
comments

Lay It Down Tab

OK -- this is probably the best song any 80's hair band ever did.
I tabbed it out just because i like it.  No one will probably see it
but here it is.  "Who is RATT?!?!" Just an 80's hair band lost in the 
mix with all the others.

Tuning -- DROP D

p= pull off
h= hammer on
/= slide up
\= slide down

INTRO
--------------------------------------------------------------------
---------------8-p-7------------------------------------------------
--7------------7------------9-p-7--------9-----10-------------------
--7------------7------------7------------7-----8--------------------
--5------------5------------5---------------------------------------
---------0--0---------0--0---------0--0-----0-----------------------
____________________________________________________________________

--------------------------------------------------------------------
-----------------------------------------8-p-7----------------------
--------10--------5-----5-----7----------7------------9-p-7---------
--------8---------5-----5-----7----------7------------7-------------
--5--5-------5/7--------------5----------5------------5-------------
---------------------0-----0-------0--0---------0--0---------0--0---
____________________________________________________________________

                | Drums enter here
--------------------------------------------------------------------
--------------------------------------------------------------------
--5-----10-------------------------------------------7--------------
--7-----8--------------------------------------------7--------------
--9-----5-------0--0--0--2--2--2--2/3--3--3--3/5-----5--------------
-----0----------0--0--0--2--2--2--2/3--3--3--3/5--0-----------------
_____________________________________________________________________

--------------------------------------------------------------------
--------8-p-7-----------------------------------------------8-------
--------7------------9-p-7--------9-----10---------10-------5-------
--------7------------7------------7-----8----------8--------5-------
--------5------------5------------5-----5----5--5------5/7--7-------
--0--0---------0--0---------0--0-----0------------------------------
_____________________________________________________________________

--------------------------------------------------------------------
-----8--------------8-p-7-------------------------------------------
-----5-----7--------7------------9-p-7--------9--5------------------
-----5-----7--------7------------7------------7--5------------------
-----7-----5--------5------------5------------5--3------------------
--0-----0-----0--0---------0--0---------0--0------------------------
_____________________________________________________________________

--------------------------------------------------------------------
-----------6-p-5---------------------3------------------------------
-----5--5---------5------------------2-----------5--7---------------
--5----------------------------------0-----------5--7---------------
-------------------------------------0-----------3--5---------------
----------------------X(pick slide)--0------------------------------
_____________________________________________________________________
_____________________________________________________________________
[ Tab from: http://www.guitartabs.cc/tabs/r/ratt/lay_it_down_tab.html ]
VERSE:(the whole time during the verse there is another guitar playing
       a Palm muted open low D) THis repeats 1X
    "i know you don't really know me. . . ."
--------------------------------------------------------------------
--------------------------------------------------------------------
-------------------------------------7--5-------------------5--7----
-------------------------------------7--5-------------------5--7----
--------------------------------------------------------------------
--------------------------------------------------------------------
_____________________________________________________________________

--------------------------------------------------------------------
--------5--5-h-6--------------5-------------------------------------
--------5--5------------------5-------------------------------------
---------------------------------------7----------------------------
---------------------------------------5----------------------------
--------------------------------------------------------------------

_____________________________________________________________________

          "You know you really want to. . . " 
--------------------------------------------------------------------
--------------------------------8--6------------6--------5----------
----------------7---------------7--5------------5--------5----------
----------------5---------------------------------------------------
--2--3--------------------------------------------------------------
--2--3--------------------3--3------------3--3-----5--5-----5-5-5-5-5
_____________________________________________________________________

--------------------------------------------------------------------
----------------------------------7---7-----------------------------
--7------------------5---7--------5---7-----------------------------
--7------7-p-5-p-0---5---7--------5---7-----------------------------
--5------------------3---5--------3---5---2---2--3------------------
--0---------------------------------------2---2--3------------------
_____________________________________________________________________

    "I know you really want to. . . ."
--------------------------------------------------------------------
--------------------------8---6----------6---------5----------------
--------7-----------------7---5----------5---------5------------7---
--------5-------------------------------------------------------7---
----------------------------------------------------------------5---
--------------------3--3-----------3--3------5--5-----5-5-5-5-------
_____________________________________________________________________
CHORUS: same as intro
_____________________________________________________________________
BRIDGE:(these are the notes in the order and amount of times they 
        are played. They are NOT played this close together)
--------------------------------------------------------------------
--5----5----5----5-h-6----3----5------5----5-h-6----3---5-----------
--5----5----5----5--------3----5------5----5--------3---5-----------
--------------------------------------------------------------------
--------------------------------------------------------------------
--------------------------------------------------------------------
_____________________________________________________________________
   ". . . .And my love"
--------------------------------------------------------------------
--------------------------------------------------------------------
--------------------------------------------------------------------
--------------------------------------------------------------------
---3------5--5------5--5------5--5----------------------------------
---3------5--5------5--5------5--5----------------------------------
_____________________________________________________________________
Here is where the solo would be, but i've run out of time.  Maybe I'll
Tab it out later and the second guitar under it.  For now, i gotta go,
If you really can't live without the solo Email me at: 
Phil@ice9rocks.com --OR-- Mosfet205@aol.com
and i'll make it a point to do the solo another time.
Later and ROCK ON!!!!!!!!!!!!
Comments