Ratt - Lack Of Communication Chords & Tabs

 

Lack Of Communication Chords & Tabs

Ratt Chords & Tabs

Version: 1 Type: Tab 0 ratings
1 star 2 stars 3 stars 4 stars 5 stars
comments

Lack Of Communication Tab

Ratt - Lack of Communication from the 1984 album "Out of the Cellar"
Tuning - Standard (eadgbe)

fb-full bend
br-bend and release  (full bend and release)
hb-hold bend
~ -vibrato
p-pull off
/-slide up
\-slide down
x-palm mute


My friend Haven showed me how to play this and I'm just tabbing it out because it
is a great song by a great band, so here it goes.

(intro)
|--------------------------------------------------------------------------|
|--------------------------------------------------------------------------|
|--------------------------------------------------------------------------|
|------7-5-------5-------5--------7-5-------5-------5-----2----------------|
|------5-3-------3-------3--------5-3-------3-------3-----0----------------|
|-0-0--------0-0-----0-0-----0-0--------0-0-----0-0-----0------------------|
  x x       x x    x x    x x       x x    x x    x

|--------------------------------------------------------------------------|
|--------------------------------------------------------------------------|
|--------------------------------------------------------------------------|
|------7-5-------5-------5--------7-5-------5-------5----------------------|
|------5-3-------3-------3--------5-3-------3-------3------------\12-------|
|-0-0--------0-0-----0-0-----0-0--------0-0-----0-0------------------------|
  x x       x x    x x    x x       x x    x x    
 
[ Tab from: http://www.guitartabs.cc/tabs/r/ratt/lack_of_communication_tab.html ]
too many problems the world cant solve..
|--------------------------------------------------------------------------|
|--------------------------------------------------------------------------|
|-----7-7-----2------------------------------------------------------------|
|-----7-7-----2------------------------------------------------------------|
|-----5-5-----0------------------------------------------------------------|
|--------------------------------------------------------------------------|
 (note: this riff and the first part of the intro are repeated throughout the song.
I am confident you can figure when and where to play them. They basically make up
the whole song)


Here is the solo
|-----------15------15------15------15------15------15---br15-----------|
|------fb18----fb18----fb18----fb18----fb18----fb18------------17---\15-|
|-----------------------------------------------------------------------|
|-----------------------------------------------------------------------|
|-----------------------------------------------------------------------|
|-----------------------------------------------------------------------|



|--------------------------------------------------------------------------|
|--------------------------------------------------------------------------|
|-----7--10--7-br10---7~~~-----------------------------------------------|
|--------------------------------------------------------------------------|
|--------------------------------------------------------------------------|
|--------------------------------------------------------------------------|
Ok there it is, rate my tab, I hope it helps.
Comments