Ratt - In Your Direction Chords & Tabs

 

In Your Direction Chords & Tabs

Ratt Chords & Tabs

Version: 1 Type: Bass Tab 0 ratings
1 star 2 stars 3 stars 4 stars 5 stars
comments

In Your Direction Bass Tab

   
-------------------------------------------------------------------------------
                             In Your Direction - Ratt
-------------------------------------------------------------------------------

Tabbed by: ChrisT

From the album: Out Of The Cellar (1984)

Tuning: Eb, Ab, Db, Gb

Intro (0:08)                                                      Repeat x4
Gb|-----------------------------------|------------------------------------|
Db|-----------------------------------|o----------------------------------o|
Ab|--5---5---5---5\--5---5---5---5-3--|o----------------------------------o|
Eb|-----------------------------------|--5-5-5-5-5-5-5-5-5-5-5-5-5-0-3-4---|

Gb|----------------------------------------------------------------|--------------|
Db|o--------------------------------------------------------------o|--------------|
Ab|o-------2-3-0---0-0-0-0-0-0-0-0-------2-3-0---2-2-2-2-2-2-2-2--o|--2-2-2-2/14\-|
Eb|--2-3-0-------------------------2-3-0---------------------------|--------------|

Verse 1                        Repeat x8
Gb|-------------------------------------|
Db|o-----------------------------------o|
Ab|o-----------------------------------o|
Eb|---5---5---5---5---5---5---5-0-3-4---|

Chorus
Gb|------------------------------------------------------------------|---------------|
Db|o----------------------------------------------------------------o|---------------|
Ab|o-------2-3-0---0-0-0-0-0-0-0-0-------2-3-0---2-2-2-2-2-2-2-2-2--o|--2-2-2---2-3--|
Eb|--2-3-0-------------------------2-3-0-----------------------------|---------------|

                               Repeat x3
Gb|-------------------------------------|----------------------------------|
Db|o-----------------------------------o|----------------------------------|
Ab|o-----------------------------------o|----------------------------------|
Eb|---5-5-5-5-5-5-5-5-5-5-5-5-5-0-3-4---|--5-5-5-5-5-5-5-5-0-3-5---0-3-5---|
[ Tab from: http://www.guitartabs.cc/tabs/r/ratt/in_your_direction_btab.html ]
Verse 2                        Repeat x4
Gb|-------------------------------------|--------------------------------|
Db|o-----------------------------------o|--------------------------------|
Ab|o-----------------------------------o|--------------------------------|
Eb|---5---5---5---5---5---5---5-0-3-4---|--5-5-5-5-5-5-5-5-0-3-5-0-3-5---|

Chorus
Gb|-------------------------------------------------------------------|-----------|
Db|o-----------------------------------------------------------------o|-----------|
Ab|o--------2-3-0---0-0-0-0-0-0-0-0-------2-3-0---2-2-2-2-2-2-2-2-2--o|--2-2-2-2--|
Eb|---2-3-0-------------------------2-3-0-----------------------------|-----------|

Guitar solo (Faster)                        Repeat x3
Gb|--------------------------------------------------|-------------------------|
Db|o------------------------------------------------o|-------------------------|
Ab|o--5-5-5-5-5---5-5-5-5-5---5-5-5-5-5---5-5-5-5-3-o|--5-5-5-5-5---5-5-5-5-5--|
Eb|--------------------------------------------------|-------------------------|

Gb|-----------------------------------------------------|
Db|---5p3-----------------------------------------------|
Ab|-------5p3---5p3---3---------------------------------|
Eb|-----------5-----5---5-3-0-0-0-0-0---0-0-0---0-0-0---|

Gb|----------------------------------------------------|
Db|o--------------------------------------------------o|
Ab|o--5-5-5-5-5---5-5-5-5-5---5-5-5-5-5---5-5-5-5-3---o|
Eb|----------------------------------------------------|

Outro (Original tempo)                                       Repeat x3
Gb|-------------------------------------------------------------------|
Db|o-----------------------------------------------------------------o|
Ab|o--------2-3-0---0-0-0-0-0-0-0-0-------2-3-0---2-2-2-2-2-2-2-2-2--o|
Eb|---2-3-0-------------------------2-3-0-----------------------------|

Gb|------------------------------------------------------------------------|
Db|------------------------------------------------------------------------|
Ab|--------2-3-0---0-0-0-0-0-0-0-0-------2-3-0---2-------------2-3-0---0---|
Eb|--2-3-0-------------------------2-3-0-----------------2-3-0-------------|


| /  slide up
| \  slide down
| h  hammer-on
| p  pull-off
| ~  vibrato
| +  harmonic
| x  Mute note
===============================================================================
Comments