Ratt - Back For More Chords & Tabs

 

Back For More Chords & Tabs

Ratt Chords & Tabs

Version: 1 Type: Bass Tab 0 ratings
1 star 2 stars 3 stars 4 stars 5 stars
comments

Back For More Bass Tab

   
-------------------------------------------------------------------------------
                             Back For More - Ratt
-------------------------------------------------------------------------------

Tabbed by: ChrisT

From the album: Out Of The Cellar (1984)

Tuning: Eb, Ab, Db, Gb

Intro (0:15)
Gb|----------------------------------------------------------|
Db|----------------------------------------------------------|
Ab|----------------------------------------------------------|
Eb|---5--------5---3-1-------0-2-------0-2-3---------/17\----|

Gb|---------------------------------------------------------------------|
Db|---------------------------------------------------------------------|
Ab|---------------------------------------------------------------------|
Eb|---5-5-5-5-5-5-5-5-5-5-5-5-5-5-5-3-1-1-1-1-1-1-1-1-1-1-1-1-1-1-1-1---|

Gb|----------------------------------------------------------------|
Db|----------------------------------------------------------------|
Ab|----------------------------------------------------------------|
Eb|---2-2-2-2-2-2-2-2-2-2-2-2-2-2-2-2-3-3-3-3-3-3-3-3-/15-15-15\---|

Verse 1                      Repeat x4
Gb|-----------------------------------|
Db|o---------------------------------o|
Ab|o--------4---5---------4---5------o|
Eb|---0-0---------5-0-0---------3-----|

Chorus
Gb|------------------------------------------------------------------------|
Db|------------------------------------------------------------------------|
Ab|------------------------------------------------------------------------|
Eb|--/15\5-5-5-5-5-5-5-5-5-5-5-5-5-5-5-3-1-1-1-1-1-1-1-1-1-1-1-1-1-1-1-1---|

Gb|------------------------------------------------------------------------|
Db|-------------------------------------------------------12----12---------|
Ab|---------------------------------------------------/10----10----10-10\--|
Eb|---2-2-2-2-2-2-2-2-2-2-2-2-2-2-2-2-3-3-3-3-3-3-3-3----------------------|
[ Tab from: http://www.guitartabs.cc/tabs/r/ratt/back_for_more_btab.html ]
Gb|---------------------------------------------------------------------|
Db|---------------------------------------------------------------------|
Ab|---------------------------------------------------------------------|
Eb|---5-5-5-5-5-5-5-5-5-5-5-5-5-5-5-3-1-1-1-1-1-1-1-1-1-1-1-1-1-1-1-3---|

Verse 2                      Repeat x4
Gb|-----------------------------------|--------|
Db|o---------------------------------o|--------|
Ab|o--------4---5---------4---5------o|--------|
Eb|---0-0---------5-0-0---------3-----|--/15\--|

Chorus 
Gb|---------------------------------------------------------------------|
Db|o--------------------------------------------------------------------|
Ab|o--------------------------------------------------------------------|
Eb|---5-5-5-5-5-5-5-5-5-5-5-5-5-5-5-3-1-1-1-1-1-1-1-1-1-1-1-1-1-1-1-1---|

Gb|------------------------------------------------------------------------|
Db|------------------------------------------------------12----12---------o|
Ab|--------------------------------------------------/10----10----10-10\--o|
Eb|--2-2-2-2-2-2-2-2-2-2-2-2-2-2-2-2-3-3-3-3-3-3-3-3-----------------------|

Guitar Solo
Gb|----------------------------------------------------------------------|
Db|o--------------------------------------------------------------------o|
Ab|o--------------------------------------------------------------------o|
Eb|----5-5-5-5-5-5-5-5-5-5-5-5-5-5-5-3-1-1-1-1-1-1-1-1-1-1-1-1-1-1-1-3---|

                             Repeat x4
Gb|-----------------------------------|--------|
Db|o---------------------------------o|--------|
Ab|o--------4---5---------4---5------o|--------|
Eb|---0-0---------5-0-0---------3-----|--/15\--|

Outro
Gb|----------------------------------------------------------------------|
Db|o---------------------------------------------------------------------|
Ab|o---------------------------------------------------------------------|
Eb|----5-5-5-5-5-5-5-5-5-5-5-5-5-5-5-3-1-1-1-1-1-1-1-1-1-1-1-1-1-1-1-1---|

                                                            Repeat until end
Gb|-------------------------------------------------------------------------|
Db|-------------------------------------------------------12----12---------o|
Ab|---------------------------------------------------/10----10----10-10\--o|
Eb|---2-2-2-2-2-2-2-2-2-2-2-2-2-2-2-2-3-3-3-3-3-3-3-3-----------------------|


| /  slide up
| \  slide down
| h  hammer-on
| p  pull-off
| ~  vibrato
| +  harmonic
| x  Mute note
===============================================================================
Comments