Rata Blanca - El Sueo De La Gitana Chords & Tabs

 

El Sueo De La Gitana Chords & Tabs

Rata Blanca Chords & Tabs

Version: 1 Type: Tab 0 ratings
1 star 2 stars 3 stars 4 stars 5 stars
comments

El Sueo De La Gitana Tab

   
p-pull of  (8)-bend
v-vibrato  /-slide
h-hamer on

intro


primera vuelta 1,2,3,4,5

segunda vuelta 1,2,3,6

1 G
e--------------------------------------|
b--------------------------------------|
g-15p12--17p12--15p12--14p12--15p12----| x2
d------12-----12-----12-----12-----12--|
a--------------------------------------|
E--------------------------------------|

2 D#
e-----------------------------------|
b-----------------------------------|
g-12p8-10p8-12p8-10p8-12p8----------|  x2
d-----8----8----8----8--------------|
a-----------------------------------|
E-----------------------------------|

3 C
e-----------------------------------|
b-----------------------------------|
g-8p5-7p5-8p5-7p5---8vvvv-----------|  x2
d----5---5---5---5------------------|
a-----------------------------------|
E-----------------------------------|

4 D
e-----------------------------------|
b-----------------------------------|
g-11p7-9p7-11p7-9p7-11p7------------|
d-----7---7----7---7----------------|
a-----------------------------------|
E-----------------------------------|

5 D
e------------------------------------|
b------------------------------------|
g-14p11--15p11--14p11--15p11--14-----|vvvv
d------12-----12-----12-----12-------|
a------------------------------------|
E------------------------------------|

6
e-----------------9(10)-8-----------|
b-------------------------11-10vvv--|
g-11p7-9p7-11p7---------------------|
d-----7---7----7--------------------|
a-----------------------------------|
E-----------------------------------|

verso
G                C     D    D#        A#        F
danza gitana tu fuerza sera fuente de mi inspiracion
D                                 G   D#    D
en tu mirada en tu boca de fuego esta el amor
G                   C         D
saca la herumbre de todo mi ser
D#     A#          F
devuelveme la pasion
D                                     G D#  D
dama tu sangre podra hacer latir a mi corazon

F              A#       C C# D           G
tus labios me pueden sanar heridas del tiempo y quisas
D#          G       D#    C#   D
un dia me enseņes toda la verdad
F              A#       C C# D           G
gitana tu puedes leer  mis manos y asi conocer
D#          G         D#     C#         D
que tu amor y mi amor juntos quieren estar

aqui se repite todo el intro y
sige la segunda estrofa con
los mismos acordes y sige el
solo

solo

e--------------------------------------------------------|
b--------------------------------------------------------|
g----5(7)(7)-8-7h8p7-5-5(7)-8-7h8p7-5(7)-5-3h5p3-2-3-2-0-|
d--------------------------------------------------------|
a-5/-----------------------------------------------------|
E--------------------------------------------------------|

e--------------------------------------------------------------|
b-------------------------------------------6------------------|
g-5h7-777-5-77-5-7777-5-7-5-8-7h8p7-5-5(7)-8-8-5(7)-5----------|
d----------------------------------------------------8-7-8-7-5-|vvv
a--------------------------------------------------------------|
E--------------------------------------------------------------|

e---------------------------------------------------|
b----------------------------8-6---6----------------|
g------------------5---5-7-8----8-7---8-7-5-7vvv----|
d-7-5-7-5-7-8-5-7-8-7-8-----------------------------|
a------8--------------------------------------------|
E---------------------------------------------------|

[ Tab from: http://www.guitartabs.cc/tabs/r/rata_blanca/el_sueo_de_la_gitana_tab.html ]
e--------------6----6-8--6-8-10-8-6--8-6------------|
b-7-8-10-7-8-10-8-10---10----------10---------------|
g-----------------------------------------10-8-7----|
d---------------------------------------------------|
a---------------------------------------------------|
E---------------------------------------------------|

e-(11p8--13p8-)-x2--11p8--(6p3-5p3-)-x2-6p3---------|
b-(-----8----8)---------8-(---3---3)-------3--------|
g---------------------------------------------------|

e-6h9p6--9h12p9--12h15p12--15h18p15--15--14(16)-12-14-|vvv
b------8-------11--------14--------17-----------------|
g-----------------------------------------------------|

e-(8-6-5)-x8--(10-8-6)x8-(5-3-2)x7-(6-5-3-----)x2------|
b----------------------------------(-----6-4-3)---6(8)-|
g------------------------------------------------------|

e-(17(19)17p15-13/15)x2-17(19)-17-15-12-15-17-15h17p15-14-11-10-|
b---------------------------------------------------------------|
g---------------------------------------------------------------|

e-8-10-11-8vv-11-10-8----10-8-------8---------------|
b--------------------11vv----11-10vv-11-10-11vv-----|
g---------------------------------------------------|

e-8-10-11/8-17(18)-13-11-10-14(15)-8-10-11-8-10-11--|
b---------------------------------------------------|
g---------------------------------------------------|

e-15p12--15h18p15---18h21p18--15h18p15--14(16)-14----|
b------14---------17--------20--------17-------------|
g----------------------------------------------------|
d-------------------------------------------------5--|(7)vvv

fin del solo

aqui sige la tercera estrofa
con los mismos acordes y enseguida sige esto

1 G
e--------------------------------------|
b--------------------------------------|
g-15p12--17p12--15p12--14p12--15p12----| x2
d------12-----12-----12-----12-----12--|
a--------------------------------------|
E--------------------------------------|

2 D#
e-----------------------------------|
b-----------------------------------|
g-12p8-10p8-12p8-10p8-12p8----------|  x2
d-----8----8----8----8--------------|
a-----------------------------------|
E-----------------------------------|

3 C
e-----------------------------------|
b-----------------------------------|
g-8p5-7p5-8p5-7p5---8vvvv-----------|  x2
d----5---5---5---5------------------|
a-----------------------------------|
E-----------------------------------|

4 D
e-----------------------------------|
b-----------------------------------|
g-11p7-9p7-11p7-9p7-11p7------------|
d-----7---7----7---7----------------|
a-----------------------------------|
E-----------------------------------|

5 D
e------------------------------------|
b------------------------------------|
g-14p11--15p11--14p11--15p11--14-----|vvvv
d------12-----12-----12-----12-------|
a------------------------------------|
E------------------------------------|

1 G
e--------------------------------------|
b--------------------------------------|
g-15p12--17p12--15p12--14p12--15p12----| x2
d------12-----12-----12-----12-----12--|
a--------------------------------------|
E--------------------------------------|

2 D#
e-----------------------------------|
b-----------------------------------|
g-12p8-10p8-12p8-10p8-12p8----------|  x2
d-----8----8----8----8--------------|
a-----------------------------------|
E-----------------------------------|

3 C
e-------------------------------------------------------|
b-------------------------------------------------------|
g-8p5-7p5-8p5-7p5---8vvvv-9/11-12-11-12/14-15-14-15/17--|
d----5---5---5---5--------------------------------------|
a-------------------------------------------------------|
E-------------------------------------------------------|

D C A# A G

comentarios y sugerencias a mi correo
Comments