Rasmus - Tonight Tonight Chords & Tabs

 

Tonight Tonight Chords & Tabs

Rasmus Chords & Tabs

Version: 1 Type: Bass Tab

Tonight Tonight Bass Tab

TAB for: 		bass
Titel:		Tonight Tonight
Artist:		The Rasmus
Album/Single:	Hell of a Tester/-
Tabbed by: 		Saki Sayuri Kansaki


Another great song! I love the bass in it and itís really easy and great
fun to play it! Have also so much fun!  

Signs:
\   =   slide down


Intro 1: (0:00)
G|-----------|---------|
D|-----------|---------|
A|-----------|--11111--|
E|--1-1-1-1--|---------|

Intro 2: (0:05)
G|-------------|-------------|-------------|------------|
D|---------03--|---------03--|---------03--|-------000--|
A|----03-11----|----03-11----|----03-11----|--33333-----|
E|--11---------|--11---------|--11---------|------------|

G|-------------|-------------|-------------|------------|
D|---------03--|---------03--|---------03--|------------|
A|----03-11----|----03-11----|----03-11----|--33333333--|
E|--11---------|--11---------|--11---------|------------|

Verse: (0:20)
G|------------|--------------|------------|
D|------------|--------------|------------|
A|----0--1-1--|--------0000--|--11113333--|
E|--1---------|--0-1111------|------------|
[ Tab from: http://www.guitartabs.cc/tabs/r/rasmus/tonight_tonight_btab.html ]
G|------------|--------------|-----------|
D|------------|--------------|-----------|
A|----0--1-1--|--------0000--|--11113-/--|
E|--1---------|--0-1111------|-----------|

Chorus (= Intro 2) (0:34)
Verse (0:48)
Chorus (1:02) 
Solo (= verse) (1:16)

Chorus: (1:30)
G|-------------|-------------|-------------|------------|
D|---------03--|---------03--|---------03--|-------000--|
A|----03-11----|----03-11----|----03-11----|--33333-----|
E|--11---------|--11---------|--11---------|------------|

G|-------------|-------------|-------------|------------|
D|---------03--|---------03--|---------03--|-------000--|
A|----03-11----|----03-11----|----03-11----|--33333-----|
E|--11---------|--11---------|--11---------|------------|

G|-------------|-------------|-------------|------------|
D|---------03--|---------03--|---------03--|------------|
A|----03-11----|----03-11----|----03-11----|--33333333--|
E|--11---------|--11---------|--11---------|------------|

Ending: (1:51)
G|-----|
D|-----|
A|-----|
E|--1--|


I think itís quite right. But any corrections and comments are always
welcome! Mail to: nadine.reinartz@web.de