Rasmus - Shot Chords & Tabs

 

Shot Chords & Tabs

Rasmus Chords & Tabs

Version: 1 Type: Tab

Shot Tab

Artiste: The Rasmus
Song: Shot
Album: Hide From The Sun
By: Timsystem@hotmail.com

Tuning Standard

Intro 1 (0:00)

|-----------------------------------------------------------------|
|-----------------------------------------------------------------|
|-----------------------------------------------------------------|
|-----------------------------------------------------------------|
|------------------9-9---------------------------9-9--------------|
|-7-7-7-7-10-10-10----10-7-7-7--7-7-7-7-10-10-10----10-7-7-7------|
PM.
|-----------------------------------------------------------------|
|-----------------------------------------------------------------|
|-----------------------------------------------------------------|
|----------------------------------------xx-xxxx------------------|
|------------------11-11-----------------xx-xxxx------------------|
|-9-9-9-9-12-12-12------12-9/6-6-6-9-9-9-xx-xxxx------------------|
PM.

Intro 2 (0:09)2x

|-----------------------------------------------------------------|
|-----------------------------------------------------------------|
|-----------------------------------------------------------------|
|-------1111-----------1111------------12-12----------9-9---------|
|-9-12--9-9-12-9--9-12-9-9-12-9--11-14-10-10-14/-8-11-7-7-11-8----|
|-7-10------10-7--7-10-----10-7--9--12-------12/-6-9------9--6----|


Verse (0:27)

|-----------------------------------------------------------------|
|-----------------------------------------------------------------|
|-----------------------------------------------------------------|
|-----------------------------------------------------------------|
|-9-9-9-9-9-9-9-9-111111111111111-9-9-9-9-9-9-9-9-111111111111111-|
|-7-7-7-7-7-7-7-7-9-9-9-9-9-9-9-9-7-7-7-7-7-7-7-7-9-9-9-9-9-9-9-9-|
PM.
[ Tab from: http://www.guitartabs.cc/tabs/r/rasmus/shot_tab.html ]
|-----------------------------------------------------------------|
|-----------------------------------------------------------------|
|-7/4-------7-7-7-7-7-7-7-7---------------------------------------|
|-----------9-9-9-9-9-9-9-9---------------------------------------|
|-----------9-9-9-9-9-9-9-9---------------------------------------|
|-----------7-7-7-7-7-7-7-7---------------------------------------|

Prechorus (1:03)

|-----------------------------------------------------------------|
|-----------------------------------------------------------------|
|-----------------------------------------------------------------|
|-9/--4-4-4-------------------------------------------------------|
|-9/--4-4-4-------------------------------------------------------|
|-7/--2-2-2-------------------------------------------------------|

Chorus (1:06)

|-----------------------------------------------------------------|
|-----------------------------------------------------------------|          
|-----------------------------------------------------------------|
|-4---7---2-4--4---7---2-4--xxxxxx--------------------------------|          
|-4---7---2-4--4---7---2-4--xxxxxx--------------------------------|
|-2---5---0-2--2---5---0-2--xxxxxx--------------------------------|

Intro 2 (1:32) 2x

Verse (1:50)

Prechorus (2:27)

Chorus (2:30)

Intro 2 (2:55)2x

Bridge (3:13)

|----------------------------------------------------------------|
|----------------------------------------------------------------|
|----------------------------------------------------------------|
|-4--7--5--4-----------------------------------------------------|
|-4--7--5--4-----------------------------------------------------|
|-2--5--3--2/----------------------------------------------------|

Chorus (3:28)

Intro 2 (3:54)2x

End (4:11)

|----------------------------------------------------------------|
|----------------------------------------------------------------|
|----------------------------------------------------------------|
|-2--4-----------------------------------------------------------|           
|-2--4-----------------------------------------------------------|
|-0--2-----------------------------------------------------------|