Rasmus - Rakkauslaulu Chords & Tabs

 

Rakkauslaulu Chords & Tabs

Rasmus Chords & Tabs

Version: 2 Type: Tab

Rakkauslaulu Tab

The Rasmus - Rakkauslaulu
Tabbed by: Joan
Email: annanas1981@hotmail.com
This is not an exact copy of the song, but it comes close. Funny song.

Intro:
e:----------------------------------------
B:----------------------------------------
G:----------------------------------------
D:----------------------------------------
A:----------------------4-4-4-4-4-6-4-3-1-
E:-4-4-4-4-4-4-4-4-4-4--------------------

Verse 1:
Et oo koskaan sanonut mulle rakas (raakaas..) 
e:------------------------------------------
B:------------------------------------------
G:------------------------------------------
D:------------------------------------------
A:---------------------4-4-4-4-4-4-4-4-3-1--
E:-4-4-4-4-4-4-4-4-4-4----------------------

Et oo koskaan sanonut että sä välität (vääliitäät...) 
e:------------------------------------------
B:------------------------------------------
G:------------------------------------------
D:------------------------------------------
A:---------------------6-6-6-6-6-6-6-6-5-4--
E:-4-4-4-4-4-4-4-4-4-4----------------------

Sä tiedät että mä tykkään susta (minä tykkään sinustaa-aa...) 
e:------------------------------------------
B:------------------------------------------
G:------------------------------------------
D:------------------------------------------
A:---------------------4-4-4-4-4-4-4-4-3-1--
E:-4-4-4-4-4-4-4-4-4-4----------------------
[ Tab from: http://www.guitartabs.cc/tabs/r/rasmus/rakkauslaulu_tab_ver_2.html ]
Ja että ihan millon vaan sä luokseni tulla saat 
e:------------------------------------------
B:------------------------------------------
G:------------------------------------------
D:------------------------------------------
A:------------------------------------------
E:-4-4-4-4-4-6-6-6-6-6-4-4-4-4-4------------

Pom Pom Pom

Chorus:

Mä luulin löytäneeni oman mussukan 
Sulle korvaan kuiskasin: "Hei Rakkaimpain."
e:------------------------------------------------------
B:------------------------------------------------------
G:------------------------------------------------------
D:------------------------------------------------------
A:-----------1-1-1-1-1-3-3-3-3-3-3-3-3-3-1--------------
E:-4-4-4-4-4-------------------------------4------------   2x

Sä sanoit mulle: "Hei Pauri ystäväin.." 

e:------------------------------------------------------
B:------------------------------------------------------
G:------------------------------------------------------
D:------------------------------------------------------
A:-----------1-1-1-1-1-3-3-1-1--------------------------
E:-4-4-4-4-4-------------------4-4-3-3-1----------------

Katsoit silmiin ja näytit näin
e:------------------------------------------------------
B:------------------------------------------------------
G:------------------------------------------------------
D:------------------------------------------------------
A:------------------------------------------------------
E:----------------------------------------1-1-3-3-3-3-4-

Verse 2:
En oo koskaan sanonut sulle pahasti 
Vaan hyvästi 
Ei oo koskaan oikein ees riidetykkää (riideltykkää...) 
Mä haluaisin olla sulle enemmän (olla sulle enemmän...) 
Tiedäthän että sinusta välitän (välitän...) 

Pom, pom, pom 

Chorus