Rasmus - No Fear Chords & Tabs

 

No Fear Chords & Tabs

Rasmus Chords & Tabs

Version: 2 Type: Tab 0 ratings
1 star 2 stars 3 stars 4 stars 5 stars
comments

No Fear Tab

   
Artist : Rasmus                          |
Album :Hide From The Sun/No Fear CDS     |
Song: No Fear                            |
_________________________________________|

*UPDATE*
I added and changed some things , please rate again.. 
*2nd Update* I just fixed a few little things.. 

       ____    _   
      (, /|   / 
        / |  /
     ) /  | /
+-- ( /   |/ o   Fear
     

        _______
       (  /
         /
      ) /
by   ( /   he  Rasmus  
      


Guitar Intro  (00:19min.)
(Standard Tunning , e,H,G,D,A,e)


 Ab5          E5           H5           F#5
|---------------------------------------------------|
|---------------------------------------------------| 2x
|---------------------------------------------------|
|6-6--6-6--6--2-2--2-2--2--9-9--9-9--9--4-4--4-4--4-|
|6-6--6-6--6--2-2--2-2--2--9-9--9-9--9--4-4--4-4--4-|
|4-4--4-4--4--0-0--0-0--0--7-7--7-7--7--2-2--2-2--2-|

|-----------|
|-----------|
|-----------|
|-2~~/9\6/9-|
|-2~~/9\6/9-|
|-0~~/7\4/7-|


VERSE

 
 Ab5  D#5  H5 Eb5  E5 A#5  H5  Ab5  2x(the 987 on the 1st time and the 747 on the 2nd)  
|------------------------------------|-------|--------|
|------------------------------------|-9-----|--------|
|------8---4---8---9---3--/ 4\-------|---8-7-|--------|
|-6----8---4---8---9---3--/ 4\  6----|-------|--------|
|-6----6---2---6---7---1--/ 2\  6----|-------|--------|
|-4--------------------------\  4----|-------|-/7-4-7-|

for better understanding i put the songtext on the tab :


Ab5   D#5            H5          Eb5
Girl, you lived your life like a sleepin’ swan        
     E5            A#5   /H5 \Ab5
Your time has come to go deeper 
Ab5   D#5         H5            Eb5
Girl, your final journey’s just begun 
     E5       A#     /H5 \Ab5
Your destiny chose the reaper



CHORUS
 
[ Tab from: http://www.guitartabs.cc/tabs/r/rasmus/no_fear_tab_ver_2.html ]
 Ab5          E5           H5           F#5
|---------------------------------------------------|
|---------------------------------------------------| 2x
|---------------------------------------------------|
|6-6--6-6--6--2-2--2-2--2--9-9--9-9--9--4-4--4-4--4-|
|6-6--6-6--6--2-2--2-2--2--9-9--9-9--9--4-4--4-4--4-|
|4-4--4-4--4--0-0--0-0--0--7-7--7-7--7--2-2--2-2--2-|


|-----------|
|-----------|
|-----------|
|-6~~/9\6/9-|
|-6~~/9\6/9-|
|-4~~/7\4/7-|

 2ND VERSE 

Same Chords Like the 1st Verse

 CHORUS

Same Like the other Chorus

 BRIDGE

|----------------|
|----------------| 2x
|----------------|
|6-4-2-2-9-9-4-4-|
|6-4-2-2-9-9-4-4-|
|4-4-0-0-7-7-2-2-|

 LAST CHORUS

|---------------------------------------|
|---------------------------------------|
|-------------------6-6-6-6-6-----------|
|-8-8-8-8-4-4-4-4-4-6-6-6-6-6-6-6-6-6-6-|
|-8-8-8-8-4-4-4-4-4-4-4-4-4-4-6-6-6-6-6-|
|-6-6-6-6-2-2-2-2-2-----------4-4-4-4-4-|
 aaah.....aaahhh......

|---------------------------------------|
|---------------------------------------|
|-------------------6-6-6-6-6-----------|
|-8-8-8-8-4-4-4-4-4-6-6-6-6-6-6-6-6-6-6-|
|-8-8-8-8-4-4-4-4-4-4-4-4-4-4-6-6-6-6-6-|
|-6-6-6-6-2-2-2-2-2-----------4-4-4-4-4-|
 aaah...aaaaaah.....                 ooohh...

|---------------------------------------|
|---------------------------------------|4x
|-------------------6-6-6-6-6-----------|
|-8-8-8-8-4-4-4-4-4-6-6-6-6-6-6-6-6-6-6-|
|-8-8-8-8-4-4-4-4-4-4-4-4-4-4-6-6-6-6-6-|
|-6-6-6-6-2-2-2-2-2-----------4-4-4-4-4-|
no fear...


Solo 2.38min

|----------------------------------------------------------|
|-----------------------------11-13/14--11-13/14--11-13/14-|
|-13--13b15r13-11---10--8----------------------------------|
|----------------------------------------------------------|
|----------------------------------------------------------|
|----------------------------------------------------------|

you have to play the bend and the 3 tones after it very slow.


-----------------------------------------

Enjoy 
Any questions or corrections to schattenkrieger2005@hotmail.de
Please Rate This Tab 
Comments