Rasmus - No Fear Chords & Tabs

 

No Fear Chords & Tabs

Rasmus Chords & Tabs

Version: 1 Type: Tab 1 rating
1 star 2 stars 3 stars 4 stars 5 stars
comments

No Fear Tab

   
No Fear - The Rasmus

e|14~~---------------------------------------------------| x=2
H|-------------------------------------------------------|
G|------------------------------4-4--4-4--4--------------|
D|----6-6--6-6--6--2-2--2-2--2--4-4--4-4--4--4-4--4-4--4-|
A|----6-6--6-6--6--2-2--2-2--2--2-2--2-2--2--4-4--4-4--4-|
E|----4-4--4-4--4--0-0--0-0--0---------------2-2--2-2--2-|

e|------------------|
H|------------------|
G|------------------|
D|2-----------------|
A|2-----------------|
E|0-------7-4-7---7-|

Verse:

e|----------------------------------------------------------------|
H|----------------------------------------------------------------|
G|----------------8-8-8-8-8-8-8-8-9-9-9-9-9-9-9-9-----------------|
D|6-6-6-6-6-6-6-6-8-8-8-8-8-8-8-8-9-9-9-9-9-9-9-9-9-9-9-9-9-9-9-9-|
A|6-6-6-6-6-6-6-6-6-6-6-6-6-6-6-6-7-7-7-7-7-7-7-7-9-9-9-9-9-9-9-9-|
E|4-4-4-4-4-4-4-4---------------------------------7-7-7-7-7-7-7-7-|
                                                                      
e|----------------------------------------------------------------|     
H|----------------------------------------------------------8-----|
G|-----------------------------------------------------------8-7--|
D|11-11-11-11-11-11-11-11-13-13-13-13-13-13-13-13-6-6-6-6-6-------|
A|11-11-11-11-11-11-11-11-13-13-13-13-13-13-13-13-6-6-6-6-6-------|
E|9--9--9--9--9--9--9--9--11-11-11-11-11-11-11-11-4-4-4-4-4-------|

e|----------------------------------------------------------------|
H|----------------------------------------------------------------|
G|----------------8-8-8-8-8-8-8-8-9-9-9-9-9-9-9-9-----------------|
D|6-6-6-6-6-6-6-6-8-8-8-8-8-8-8-8-9-9-9-9-9-9-9-9-9-9-9-9-9-9-9-9-|
A|6-6-6-6-6-6-6-6-6-6-6-6-6-6-6-6-7-7-7-7-7-7-7-7-9-9-9-9-9-9-9-9-|
E|4-4-4-4-4-4-4-4---------------------------------7-7-7-7-7-7-7-7-|

e|-------------------------------------------------------------------------|
H|-------------------------------------------------------------------------|
G|-------------------------------------------------------------------------|
D|11-11-11-11-11-11-11-11-13-13-13-13-13-13-13-13-6-6-6-6-6-6-6-6----------|
A|11-11-11-11-11-11-11-11-13-13-13-13-13-13-13-13-6-6-6-6-6-6-6-6----------|
E|9--9--9--9--9--9--9--9--11-11-11-11-11-11-11-11-4-4-4-4-4-4-4-4-7-4-7--7-|

Chorus:

e|14~~---------------------------------------------------| x=2
H|-------------------------------------------------------|
G|------------------------------4-4--4-4--4--------------|
D|----6-6--6-6--6--2-2--2-2--2--4-4--4-4--4--4-4--4-4--4-|
A|----6-6--6-6--6--2-2--2-2--2--2-2--2-2--2--4-4--4-4--4-|
E|----4-4--4-4--4--0-0--0-0--0---------------2-2--2-2--2-|

e|------------------|
H|------------------|
G|------------------|
D|2-----------------|
A|2-----------------|
E|0-------7-4-7---7-|

Verse:
[ Tab from: http://www.guitartabs.cc/tabs/r/rasmus/no_fear_tab.html ]
e|----------------------------------------------------------------|
H|----------------------------------------------------------------|
G|----------------8-8-8-8-8-8-8-8-9-9-9-9-9-9-9-9-----------------|
D|6-6-6-6-6-6-6-6-8-8-8-8-8-8-8-8-9-9-9-9-9-9-9-9-9-9-9-9-9-9-9-9-|
A|6-6-6-6-6-6-6-6-6-6-6-6-6-6-6-6-7-7-7-7-7-7-7-7-9-9-9-9-9-9-9-9-|
E|4-4-4-4-4-4-4-4---------------------------------7-7-7-7-7-7-7-7-|
                                                                      
e|----------------------------------------------------------------|     
H|----------------------------------------------------------8-----|
G|-----------------------------------------------------------8-7--|
D|11-11-11-11-11-11-11-11-13-13-13-13-13-13-13-13-6-6-6-6-6-------|
A|11-11-11-11-11-11-11-11-13-13-13-13-13-13-13-13-6-6-6-6-6-------|
E|9--9--9--9--9--9--9--9--11-11-11-11-11-11-11-11-4-4-4-4-4-------|

e|----------------------------------------------------------------|
H|----------------------------------------------------------------|
G|----------------8-8-8-8-8-8-8-8-9-9-9-9-9-9-9-9-----------------|
D|6-6-6-6-6-6-6-6-8-8-8-8-8-8-8-8-9-9-9-9-9-9-9-9-9-9-9-9-9-9-9-9-|
A|6-6-6-6-6-6-6-6-6-6-6-6-6-6-6-6-7-7-7-7-7-7-7-7-9-9-9-9-9-9-9-9-|
E|4-4-4-4-4-4-4-4---------------------------------7-7-7-7-7-7-7-7-|

e|-------------------------------------------------------------------------|
H|-------------------------------------------------------------------------|
G|-------------------------------------------------------------------------|
D|11-11-11-11-11-11-11-11-13-13-13-13-13-13-13-13-6-6-6-6-6-6-6-6----------|
A|11-11-11-11-11-11-11-11-13-13-13-13-13-13-13-13-6-6-6-6-6-6-6-6----------|
E|9--9--9--9--9--9--9--9--11-11-11-11-11-11-11-11-4-4-4-4-4-4-4-4-7-4-7--7-|

Chorus:

e|14~~---------------------------------------------------| x=2
H|-------------------------------------------------------|
G|------------------------------4-4--4-4--4--------------|
D|----6-6--6-6--6--2-2--2-2--2--4-4--4-4--4--4-4--4-4--4-|
A|----6-6--6-6--6--2-2--2-2--2--2-2--2-2--2--4-4--4-4--4-|
E|----4-4--4-4--4--0-0--0-0--0---------------2-2--2-2--2-|

e|------------------|
H|------------------|
G|------------------|
D|2-----------------|
A|2-----------------|
E|0-----------------|

Bridge:

e|--------------------------------|
H|--------------------------------|
G|----------------4-4-------------|
D|6-6-----2-2-----4-4-----4-4-----|
A|6-6-----2-2-----2-2-----4-4-----|
E|4-4-----0-0-------------2-2-----|

e|--------------------------------|
H|--------------------------------|
G|----------------4-4-----1~~~~~~~|
D|6-6-----2-2-----4-4-------------|
A|6-6-----2-2-----2-2-------------|
E|4-4-----0-0---------------------|

Solo:

e|----------------------------------------|
H|----------------------------------------|
G|3~~~~~~---------------------------------|
D|-------4-3-4-3~~~~~~3-3-3-~~~~3-3-3--1~~|
A|----------------------------------------|
E|----------------------------------------|

e|18-20-21-----18-20-21-----18-20-21------------------|
H|----------6------------7------------6--6-6-6--4~~~~~|
G|----------------------------------------------------|
D|----------------------------------------------------|
A|----------------------------------------------------|
E|----------------------------------------------------|

And then play chorus one key up( G#=A# E=F# ).
I don't know if I wrote every thing right, cause' I'm really tired!

Good luck!
Comments