Rasmus - Myself Chords & Tabs

 

Myself Chords & Tabs

Rasmus Chords & Tabs

Version: 2 Type: Tab

Myself Tab

Song   : Myself                  |
Artist : Rasmus                  |
Album  : Hell Of A Collection    |
_________________________________|
Tabbed By $hattenkrieger

Intro/Verse

|e|-----------------------------------------||
|H|-----------------------------------------||
|G|-----------------------------------------||
|D|---66666666------------------------------||
|A|---44444444-77777777-44444444-66667766---||
|E|------------55555555-22222222-44445544---||

   PM (Palm Muting through the whole intro)
   ----------------------------------------->


Chorus
                          After 4th time
|------------------------|-----|
|------------------------|-----|
|--6-6-(x)---------------|--6~-|
|--6-6-(x)7-7-4-4-44-6-6-|--6~-|
|--4-4-(x)7-7-4-4-44-6-6-|--4~-|
|---------5-5-2-2-22-4-4-|-----|

Bridge

|-----------------------------------------------------|
|-----------------------------------------------------|
|--8---------6---------8------------------------------|
|--8-8888888—6-6666666-8-8888888-6-6-6-6-66-----------|
|--6-6666666—4-4444444-6-6666666-4-4-4-4-44-----------|
|-----------------------------------------------------|
[ Tab from: http://www.guitartabs.cc/tabs/r/rasmus/myself_tab_ver_2.html ]
------------------------------------------------------|
------------------------------------------------------|
--8---------6---------8---------6~--------------------|
--8-8888888—6-6666666-8-8888888-6~-4-6-6--------------|
--6-6666666—4-4444444-6-6666666-4~-2-4-4—-2-4---------|
------------------------------------------------------|

Solo (a second guitar plays the intro riff through the solo)

|--------------------------------------------------------------|
|-----------------------------------2-------2---------------1--|
|-------1---------------------1-1-4---1-1-4—--2-1-----1-2-1----|
|---------4-2-1-2-------1-2-4---------------------4-4----------|
|--/2-4-----------4-2-4----------------------------------------|
|--------------------------------------------------------------|

don’t sure about the second part , I think they use wah pedals or something
--------------------------------------------------------------|
---5-22-5-22-5-2--5-22-5-22-5-2--5-22-5-22-5-2--5-22-00-22-55-|
--------------------------------------------------------------|
--------------------------------------------------------------|
--------------------------------------------------------------|
--------------------------------------------------------------|


--22-44-22----22-44-22----22-44-22----|
-----------55----------55----------54-|
--------------------------------------|
--------------------------------------|
--------------------------------------|
--------------------------------------|

Intro/Verse 5x
Chorus 4x
Intro/Verse 4x
Chorus 4x
Bridge 1x
Intro/Verse 4x
Chorus 4x
Bridge 1x
Solo 1x
Chorus : as much as needed
( end with :
|-----|
|-----|
|-6-6-|
|-6-6-|
|-4-4-|
|-----| )