Rasmus - Myself Chords & Tabs

 

Myself Chords & Tabs

Rasmus Chords & Tabs

Version: 1 Type: Tab 0 ratings
1 star 2 stars 3 stars 4 stars 5 stars
comments

Myself Tab

Band - The Rasmus
Song - Myself
Album - Peep
Tabber - Crow Bird Lintu Anna!!

My favourite song on the Peep album. It's only half the tab there
but it's better than nothing!
[ Tab from: http://www.guitartabs.cc/tabs/r/rasmus/myself_tab.html ]
Verse
e|--------------------------------------------|
b|--------------------------------------------|
g|--------------------------------------------|
d|--------------------------------------------|  (x5)
a|-44444444-00000000--------------------------|
e|-------------------22222222-44444444--------|

Chorus (not sure about strumming rythm!)
e|----------------------------|
b|----------------------------|
g|---6--2---------------------|
d|---6--2--4--6---------------| (x4)
a|---4--0--4--6---------------|
e|---------2--4---------------|

End chorus with the 466
Comments