Rasmus - In The Shadows Chords & Tabs

 

In The Shadows Chords & Tabs

Rasmus Chords & Tabs

Version: 1 Type: Tab 0 ratings
1 star 2 stars 3 stars 4 stars 5 stars
comments

In The Shadows Tab

Intro 1

e--------------------------------------------------------------------------
b--------------------------------------------------------------------------
g--------------------------------------------------------------------------
d--------------------------------------------------------------------------
e-5-5-5-4-5-4-0----------------0-2--4--5-4-5-4-0---------------------------
a-----------------2-2-2-0-0-2----------------------2-4-5-4-5-4-0-----------

Intro 2

e--------------------------------------------------------------------------
b--------------------------------------------------------------------------
g--------------------------------------------------------------------------
d--------------------------------------------------------------------------
a-5-5-5-4-5-4-0----------------0-2--4--5-4-5-4-0---------------------------
e-----------------2-2-2-0-0-2----------------------2-2-4-4-5---------------
[ Tab from: http://www.guitartabs.cc/tabs/r/rasmus/in_the_shadows_tab.html ]
Interlude before the chorus

e--------------------------------------------------------------------------
b--------------------------------------------------------------------------
g--------------------------------------------------------------------------
d--------------------------------------------------------------------------
a-4--3--2------------------------------------------------------------------
e-2--1--0------------------------------------------------------------------

Chorus / Outro

e--------------------------------------------------------------------------
b--------------------------------------------------------------------------
g-7-----9------11-----9------7-------9------11-----------------------------
d-7-----9------11-----9------7-------9------11-----------------------------
a-5-----7------9------7------5-------7------9----End with---4-3-2----------
e-----------------------------------------------------------2-1-0----------
Comments