Rasmus - In My Life Chords & Tabs

 

In My Life Chords & Tabs

Rasmus Chords & Tabs

Version: 1 Type: Bass Tab 0 ratings
1 star 2 stars 3 stars 4 stars 5 stars
comments

In My Life Bass Tab

*----------------------------------------------*
| Artist:       The Rasmus                     |
| Title:        In My Life                     |
| Tabbed by:    vi3x (vi3x@libero.it]  |
*----------------------------------------------*


INTRO - Part One [Overdrive]
G|------------------------|         |-------------------|
D|-333333333333-555/-6/-5-| x5 then |-333333333333-5-5#-|
A|------------------------|         |-------------------|
E|------------------------|         |-------------------|

Part Two
G|-----------------------|
D|-----------------------| x4
A|-0-3-2---3p2--3-2--2h3-| 
E|-------3----1----3-----|


VERSE [Start with "Times..."]
G|--------------------------------------------------------|
D|--------------------------------------------------------| x2
A|-7--7/191919/--7--7/191919/--0--0/151515/--0--0/151515/-|
E|--------------------------------------------------------|
[ Tab from: http://www.guitartabs.cc/tabs/r/rasmus/in_my_life_btab.html ]
G|--------------------------------------------------------|
D|-0--0---------------------------------------------------|
A|-----/171717/--7--7/191919/--0--0/151515/---------------|
E|---------------------------------------------3-3-3-3#---|

CHORUS
G|-----------------------2-2-2-2--------------------------------------------|
D|------------2-2-2-0h2p0-------0-0-0---0---3-3-3-3-2-2-2-2-----------------|
A|-3-3-3-2h3p2------------------------3---3-----------------0-0-0-0---------|
E|------------------------------------------------------------------3-3-3-3-|

G|-----------------------2-2-2-2------------------------------|
D|------------2-2-2-0h2p0-------0-0-0---0-----3-3-3#--2-2-2---|
A|-3-3-3-2h3p2------------------------3---3#----------------0-|
E|------------------------------------------------------------|

INTRO - Part Two
VERSE
CHORUS
INTRO - Part One

BRIDGE
G|--------------------|
D|--------------------| x4
A|-000----------------| 
E|----3#-33-111-3#-33-|

#: Block string

INTRO - Part One (Fill in with doubled notes, following the drums)
Comments