Rasmus - Guilty Chords & Tabs

 

Guilty Chords & Tabs

Rasmus Chords & Tabs

Version: 1 Type: Bass Tab 0 ratings
1 star 2 stars 3 stars 4 stars 5 stars
comments

Guilty Bass Tab

   
Artist:The Rasm
Title:Guilty

Standard Tuning : E , A , D ,G

A Nice Song With A Nice Little Bridge Enjoy

At the begining theres a guitar solo bass is in the just a simple 
beat going on. 


Piano Intro:

|-----------------------------|
|-----------------------------|
|-6----2--4--1---2-4----------|
|-----------------------------|

Guitar Piano: ( Note: That this is actually played behind the
overdrive guitar
|-----------------------------|
|-----------------------------|
|-6-6-6-2-2-2-4-4-4-4--1--2-4-|
|-----------------------------|

Verse1:

|-----------------------------|
|-----------------------------|
|-6-6--2-2-4-4-1~-2-4---------|
|-----------------------------|

Pre chorus: 
[ Tab from: http://www.guitartabs.cc/tabs/r/rasmus/guilty_btab.html ]
|-----------------------------|
|-----------------------------|
|-1-2----x3-------------------|
|-----------------------------|

Chorus: (Same as piano intro)

|-----------------------------|
|-----------------------------|
|-6----2--4--1---2-4----------|
|-----------------------------|


Bridge:

|-----------------------------|
|-----------------------------|
|-2-4---1-2-4-----------------|
|-----2-----------------------|

|----------------8--10--11-----11--11----11--10--8-------------------|
|------8--9--11-----------------------------------11--9--8-----------|
|--11----------------------------------------------------------------|
|--------------------------------------------------------------------|

Until the ending:

|-----------------------------|
|-----------------------------|
|-6-6-6-2-2-2-4-4-4-4--1--2-4-|
|-----------------------------|
Comments