Rasmus - Funeral Song Chords & Tabs

 

Funeral Song Chords & Tabs

Rasmus Chords & Tabs

Version: 2 Type: Chords 0 ratings
1 star 2 stars 3 stars 4 stars 5 stars
comments

Funeral Song Chords

   
Funeral Song
By The Rasmus


Intro riff

||: Cm    |     G/h      |   Ab       |  //    G :||    Ab     G   ||
E--------------------------------------------------|---------------|
B----8-----------------------------------------8---|-----------8---|
G--------8--10--12----10-----10-8-7-8----8-7-5-----|-----8-7-5-----| 
D--------------------------------------------------|---------------|
A--------------------------------------------------|---------------|
E--------------------------------------------------|---------------|


Ab               G
   I dumped you again
Db6b5           C
   I don't understand
Ab                 G
   It's happened before
Db6b5               C
   Can't take it no more

Ab               Dm6b5
   These foolish games
Db6b5                  C
   Always end up in confusion
Ab               Dm6b5
   I'll take you back
           Gsus4                  G
   Just to leave you once again
[ Tab from: http://www.guitartabs.cc/tabs/r/rasmus/funeral_song_crd_ver_2.html ]
Cm              Ab
   I died in my dreams
                           Eb
   What's that supposed to mean?
                   Bb   G/h
   Got lost in the fi - re
Cm              Ab
   I died in my dreams
                         Eb
   Reaching out for your hand
            Bb  G/h   
   My fatal desire


Intro riff ||: Cm | G/h | Ab | // - G :|| Ab - G || 


I've failed you again
Cause I let you stay
I used to pretend
That I felt okay

Just one big lie
Such a perfect illusion
I made you mine
Just to hurt you once again

I died in my dreams
What's that supposed to mean?
Got lost in the fire
I died in my dreams
Reaching out for your hand
My fatal desire


Intro riff ||: Cm | G/h | Ab | // - G :|| Ab - G || 

------------------------------------------------------------------


Some of the more "difficult" chords are played like this:


     Db6b5    Dm6b5
E---------------------
B------6--------6-----
G------3--------4-----
D------5--------6-----
A------4--------5-----
E---------------------
Comments