Rasmus - Chill Chords & Tabs

 

Chill Chords & Tabs

Rasmus Chords & Tabs

Version: 1 Type: Tab 0 ratings
1 star 2 stars 3 stars 4 stars 5 stars
comments

Chill Tab

   
The Rasmus - Chill

From "Into". Words & Music by the Rasmus. Tabbed by Per. (pjur2000@hotmail.com)


Intro:

Em7 - Bm7 . Play over and over again. This tab is played at the same time=

e-------------------------------------------------------------------------------------|
b-------------------------------------------------------------------------------------|
g---------------7--------4-----------------7-----4--------------------4---------------|
d---5--4--5-------------------5--4--5---------------------------7------4--5-----------|
a-------------------------------------------------------5--4--5-----------------------|
E-------------------------------------------------------------------------------------|

Verse =

Em - D - C

Em
I gotta make a phone call to my best friends
D		     C
I gotta let them know that I'm leaving
everything behind me and politely
I don't wanna hurt their feelings (oh no)

I'll need to come back and I wanna explain
why I had to leave them sleeping
the answers in the air but I really don't care
'cos I couldn't really keep on breathing the smoke

Chorus =

[ Tab from: http://www.guitartabs.cc/tabs/r/rasmus/chill_tab.html ]
C(add9)		             G
and every time when painted my room
C(add9)                       G
like a fool I hid my feelings
C(add9)		              G
and every time when I painted my room
Dsus4	                   D
I thought about leaving

This part is played in the chorus between G and C(add9).

e---------------------------------------------------------------------------------------|
b---------------------------------------------------------------------------------------|
g---------------------------------------------------------------------------------------|
d-----------5---------4-----------------------------------------------------------------|
a------0--------------------------2-----------------------------------------------------|
E---------------------------------------------------------------------------------------|


Second verse =

you roll like a stone girl you should not stop
and I don't wanna step on your feet
you do what you do to stay on the top
I don't wanna make you feel incomplete

Chorus:

and every time when I...

C- part:

C(add9)
at the end of the day
Em7
I don't know what to say
C(add9)
at the end of the day
Dsus4       D
I'll be flying
C(add9)  Em7
away
C(add9) D
flying away


Song ends with Em7 (030220)

This tab is correct!

From a Swedish The Rasmus-fan to all of you!

Tabbed by Per. (pjur2000@hotmail.com)
Comments