Rascal Flatts - Heres To You Chords & Tabs

 

Heres To You Chords & Tabs

Rascal Flatts Chords & Tabs

Version: 1 Type: Tab 0 ratings
1 star 2 stars 3 stars 4 stars 5 stars
comments

Heres To You Tab

I was looking up the tabs for this song and no entry had the solo, so I decided to give
it a whirl.  I think this is pretty close to Joe Don's solo on the recording, maybe a few
timing issues, not likely there are any note issues. If you want to know the chords there
are several tab sites that have them, If you google "Country Total Tabs" and look for the
Country Total Tab site I know for sure they have it cuz that's where I get most of my
Rascal Flatts chords from.  Anyway here's the solo.  This is an awesome song by the way,
definately my favorite off of their new CD.
[ Tab from: http://www.guitartabs.cc/tabs/r/rascal_flatts/heres_to_you_tab.html ]
Joe Don's Solo:
E------------------------------------------------------------------|
B------------------------------------------------------------------|
G------------------------------------------------10-10p8---10p8----|
D---------------8b10-b10-b10-10b-r9-r9-r8-8\6-6v--------h10----h10-|
A------------------------------------------------------------------|
E-4-6-8-6vv-8-4----------------------------------------------------|

E-----------------------------|
B-11-11--11-11----11----/9vv--|
G-12-12--12-10----10----------|
D--------------13----13-------|
A-----------------------------|
E-----------------------------|

Rock on!
Chris
Comments