Randy - We Are The Boys Chords & Tabs

 

We Are The Boys Chords & Tabs

Randy Chords & Tabs

Version: 1 Type: Tab 0 ratings
1 star 2 stars 3 stars 4 stars 5 stars
comments

We Are The Boys Tab


--------------------------------------------------------------------------------------------------------
(((((((((((((((((((((((((((((((((((((((-Randy-Me and the Boys-))))))))))))))))))))))))))))))))))))))))))
--------------------------------------------------------------------------------------------------------

by : Anders
Mai : andersforslof@hpunkmail.com
Album : You cant keep a good band down

Intro
[ Tab from: http://www.guitartabs.cc/tabs/r/randy/we_are_the_boys_tab.html ]
------------------------------------
------------------------------------
-5-----------------------------------
-7--3--5--7-7-4-7-5-----------------
-7--5--7--5-5-6-5-7-----------------
----5--7--5-5-6-5-7-----------------   x4


Verse bas

------------------------------------
------------------------------------
-5----------------------------------   x4
-----3--5--7-7-4-7-5----------------

Verse

-3------
-3------
-5------  x15
-5------
-3------
-3------






Comments