Randy - Superstar Chords & Tabs

 

Superstar Chords & Tabs

Randy Chords & Tabs

Version: 2 Type: Bass Tab 0 ratings
1 star 2 stars 3 stars 4 stars 5 stars
comments

Superstar Bass Tab

   
Randy
Song:      SuperStar
Album:     You Can't Keep A Good Band Down
Tabbed by: BassD!
                                >=play a couple of time
				/=slide to
				*=a rest
Intro x4
G|------------------------------------|
D|-------2-----3-3-3-2----------------|
A|-3-1-3---3-1---------3--------------|
E|------------------------------------|

Verse x4
G|------------------------------------------------------|
D|------------------------------------------------------|
A|-3--3-3--3-3--3-3--3----------------------------------|
E|---------------------3--3-3--3-3--3--3-3--------------|

Pre-Chorus
G|-----------------------------------------|
D|-------------2-5-------------------------|
A|----3>-----3-----3-2----3>---------------|
E|-1>----3>------------1>----3>------------|

Chorus
G|----------------------------------------------|
D|----------------------------------------------|
A|-3-----3-3--3-3-------------------------------|
E|---3-3----------3-3--3-3--3-3--3-3------------|

G|-----------------------------------------|
D|-----------------------------------------|
A|-3-----3-3-------------------------------|
E|---3-3-----1-1--3-3--3-3--3-3------------|

(Intro x2)

(Verse x2)

(Pre-Chorus)
[ Tab from: http://www.guitartabs.cc/tabs/r/randy/superstar_btab_ver_2.html ]
Chorus
G|----------------------------------------------|
D|----------------------------------------------|
A|-3-----3-3--3-3-------------------------------|
E|---3-3----------3-3--3-3--3-3--3-3------------|

G|----------------------------------------------|
D|----------------------------------------------|
A|-3-----3-3------------------------------------|
E|---3-3-----1-1--3-3--3-3--3-3--3-3------------|

Bass solo
G|------------------------------------|
D|--------------3332-0---0------------|
A|-------3-------------3---3-2-0------|
E|-5-3-5---5-3-------------------3----|

(continue)
G|---------------------------------------------------------|
D|---5--------------------3332-0---0-----------------------|
A|-5---5-3-5-------3-------------3---3-2-0-----------------|
E|-----------5-3-5---5-3-------------------3--3-3----------|

"They don't think that is wrong"
G|-----------------------------------------------|
D|-----------5/7-7/12-12/15----------------------|
A|-3>--------------------------------------------|
E|----1>-3*--------------------------------------|

End
G|--------------------------------|
D|-------2-----3-3-3-2------------|
A|-3-1-3---3-1---------3----------|
E|--------------------------------|

Email me for comments or questions.=rancid_ska@hotmail.com

===============================================================================
Comments