Random Hero - End Chords & Tabs

 

End Chords & Tabs

Random Hero Chords & Tabs

Version: 2 Type: Tab 0 ratings
1 star 2 stars 3 stars 4 stars 5 stars
comments

End Tab

|------------|------------|------------|----------------|
|------------|------------|------------|----------------|
|------------|------------|------------|-------2(h)3----|
|-------3--0-|-------3--0-|----3--5----|----3---------3-|  1st verse
|----1-------|----0-------|-3--------6-|-1--------------|
|-3----------|-1----------|------------|----------------|

[ Tab from: http://www.guitartabs.cc/tabs/r/random_hero/end_tab_ver_2.html ]
|------------------------------------------|-------------------------------------|
|------------------------------------------|-------------------------------------|
|------------------------------------------|-------------------------------------|
|-8----8----8--8----10--10----10----10--10-|-5----5----5--5----3--3----3----3--3-|   chorus
|-8----8----8--8----10--10----10----10--10-|-5----5----5--5----3--3----3----3--3-|
|-6----6----6--6----8---8-----8-----8---8--|-3----3----3--3----1--1----1----1--1-|


|------------|------------|------------|-------5(h)6----|
|-------6--4-|-------6--4-|----6--8----|----6---------6-|
|----3-------|----2-------|-5--------8-|-3--------------|
|-5----------|-3----------|------------|----------------|    2nd verse, 1st part  (2nd part is same as 1st verse)
|------------|------------|------------|----------------|
|------------|------------|------------|----------------|


chords for 3rd verse are as follows:

0    0    0    0
0    0    0    0
9    7    4    5
9    7    4    5
7    5    2    3
0    0    0    0


song goes:

1st verse
chorus
2nd verse
chorus
3rd verse/ breakdown
chorus
Comments