Rancid - You Dont Care Nothing Chords & Tabs

 

You Dont Care Nothing Chords & Tabs

Rancid Chords & Tabs

Version: 1 Type: Tab 0 ratings
1 star 2 stars 3 stars 4 stars 5 stars
comments

You Dont Care Nothing Tab

   
-------------------------------------------------------------------------------
			     You Don't Care Nothin - Rancid
-------------------------------------------------------------------------------
Tabbed by: Steve

Tuning: Standard (EADBGe)
Intro-
e|---------------|
B|---------------|
G|--55-----------|
D|--55-55-77-33--|x5
A|--33-55-77-33--|
E|-----33-55-11--|

  For the 3rd to 5th time Guitar 2 does this
e|-----8-8--8-8--8-8--8-8--8-8-8-8----------------------------------------|
B|-----8-8--8-8--8-8--8-8--8-8-8-8----------------------------------------|
G|--------------------------------------10^-------------------------------|
D|------------------------------------------------------------------------|
A|------------------------------------------------------------------------|
E|-------------------------------------------~~~~~~~Pick SLide~~~~~~~-----|
Note- only bend the 10 and pickslide on the last time

Verse
e|-------------------------|
B|-------------------------|
G|--------------5555-------|x2
D|-7777---3333--5555--5555-|
A|-7777---3333--3333--5555-|
E|-5555---1111--------3333-|

Pre-Chorus (all palm muted)
e|---------------------------------------|
B|---------------------------------------|
G|---------------------55555555----------|
D|-77777777--33333333--55555555--5555555-|x2
A|-77777777--33333333--33333333--5555555-|
E|-55555555--11111111------------3333333-|
[ Tab from: http://www.guitartabs.cc/tabs/r/rancid/you_dont_care_nothing_tab.html ]
Chorus
e|---------------------------------------------------------------------------|
B|---------------------------------------------------------------------------|
G|-5555--------5555--------5555--5555--------5555--------........------------|
D|-5555--3333--5555--3333--5555--5555--3333--5555--5555--33333333------------|
A|-3333--3333--3333--3333--3333--3333--3333--3333--5555--33333333------------|
E|-------1111--------1111--------------1111--------3333--11111111------------|

Bridge-- Basically The intro but only 3 times with lead it's thing in all 3
followed by a pickslide

"about me about me about me" part
e|--------------------------------------|
B|--------------------------------------|
G|-------------5555---------------------|
D|-7777--3333--5555--5555-(x2)--3333----|
A|-7777--3333--3333--5555-------3333----|
E|-5555--1111--------3333-------1111----|

Outro
e|---------------------------------------------------------------------------------|
B|---------------------------------------------------------------------------------|
G|-5555---------.......--------5---------------------------------------------------|
D|-5555--5555--33333333--(x3)--5---------------------------------------------------|
A|-3333--5555--33333333--------3---------------------------------------------------|
E|-------3333--11111111------------------------------------------------------------|

Intro
verse
Pre-chorus
Chorus
verse
pre-chorus
chorus
Bridge
"about me"
Chorus
Outro

| /  slide up     | ^ bend note up
| \  slide down   | . Palm mute
| h  hammer-on
| p  pull-off
| ~  let ring
| +  harmonic
| x  Mute note
===============================================================================
Comments