Rancid - Whirlwind Chords & Tabs

 

Whirlwind Chords & Tabs

Rancid Chords & Tabs

Version: 1 Type: Bass Tab 0 ratings
1 star 2 stars 3 stars 4 stars 5 stars
comments

Whirlwind Bass Tab

   
Rancid
"Whirlwind"
Rancid S/T 1992
By: Alec(misfit809@Hotmail.com)

Intro and Pre Verse:

G:----------------------------|
D:----------------------------|
A:-3------3------3------3-----|
E:--1-0-0--1-0-0--1-0-0--1-0-0|

Verse:

G:----------------------------------------|
D:----------------------------------------|
A:-2-3-3-3-3-3-------------------3-3-3-3-3|
E:-------------0-0-0-0-0-1-1-1-1----------|

1st Pre- CHorus:
[ Tab from: http://www.guitartabs.cc/tabs/r/rancid/whirlwind_btab.html ]
G:----------------------------|
D:----------------------------|
A:-1-1-1-1-1-1-1-0-1-2-3-3-3-3|
E:----------------------------|

Chorus:

G:----------------------------------|
D:----------------------------------|
A:-----------3-3-3-3----------------|
E:-1-1-1-1-1---------3-3-3-3-1-1-1-1|

2nd Pre-Chorus:

G:----------------------------------|
D:-----------------------------1-0--|
A:-1-1-1-1-1-1-1-0-1-2-3-3-3-3-----3|
E:----------------------------------|

Bridge:
    do  3 times then....
G:---5-5-3-5--------|-3-3-3----------------|
D:-----------3------|-------3-2-3-4-5-3----|
A:-3-----------6-5--|-------------------2-3|
E:-----------------6|----------------------|

Comments