Rancid - Vanilla Sex Chords & Tabs

 

Vanilla Sex Chords & Tabs

Rancid Chords & Tabs

Version: 1 Type: Tab 0 ratings
1 star 2 stars 3 stars 4 stars 5 stars
comments

Vanilla Sex Tab

Alright we're still working on the solos... if anybody out there knows how to play the solos let us know.

deversen@bu.edu

Intro part A

E-------------------------------|
B--1---3------------------------|
G--0---2---2--------------------|
D--2---0---2--------------------|        (0:00-0:37)
A--3-------0--------------------|
E-------------------------------|

Intro part B

E------------------------------|
B------------------------------|
G--5---7-------9---5---7-------|
D--3---5---9---7---3---5-------|      (0:37-0:48)
A----------7-------------------|
E------------------------------|

Repeat Intro part A (0:48-0:53)

1st Solo (0:53-0:56)

Verse part A
[ Tab from: http://www.guitartabs.cc/tabs/r/rancid/vanilla_sex_tab.html ]
E------------------------------|
B------------------------------|
G---5---7---5---7--------------|
D---5---7---5---7----7---------|      (0:56-1:11)
A---3---5---3---5----7---------|
E--------------------5---------|

Verse part B

E------------------------------|
B------------------------------|
G------------------------------|
D---3---5---2---7---3---5------|     (1:11-1:21)
A---3---5---2---7---3---5------|
E---1---3---0---5---1---3------|

Solo #2 (1:21-1:51)

Verse part C 
                      Add on 3rd repeat
E------------------|------------|
B------------------|------------|
G------------------|------------|
D---3---5---2---7--|--3--5------|     Repeat 3x  (1:51-2:15)
A---3---5---2---7--|--3--5------|
E---1---3---0---5--|--1--3------|

Final Verse

E-------------------------------|
B-------------------------------|
G---5---7---5---7---------------|
D---5---7---5---7----7*---------|      (1:51-2:28)
A---3---5---3---5----7----------|
E--------------------5----------|    *play 4 more times
Comments