Rancid - Time Bomb Chords & Tabs

 

Time Bomb Chords & Tabs

Rancid Chords & Tabs

Version: 2 Type: Tab 1 rating
1 star 2 stars 3 stars 4 stars 5 stars
comments

Time Bomb Tab

   
Rancid - Time Bomb

E---2-2-2--------2-2-2--------------------------------------------
B---3-3-3--------3-3-3--------------------------------------------
G---4-4-4--1-1-1-4-4-4-1-1-1--------------------------------------
D---4-4-4--2-2-2-4-4-4-2-2-2--------------------------------------
A---2-2-2--2-2-2-2-2-2-2-2-2--------------------------------------
E----------------------------------------------------------------- 

if you wanna make the move....        do this 4x
E-2-x-2-x-2-x-2-x--4-x-4-x-4-x-4-x--------------------------------
B-3-x-3-x-3-x-3-x--5-x-5-x-5-x-5-x--------------------------------
G-4-x-4-x-4-x-4-x--4-x-4-x-4-x-4-x--------------------------------
D-4-x-4-x-4-x-4-x-------------------------------------------------
A-----------------------------------------------------------------
E-----------------------------------------------------------------
[ Tab from: http://www.guitartabs.cc/tabs/r/rancid/time_bomb_tab_ver_2.html ]
Black coat, white shoes, black hat, cadillac.... do this 2x
E-5-x-5-x-5-x-5-x-------------------------------------------------
B-5-x-5-x-6-x-6-x-7-x-7-x-7-x-7-x-9-x-9-x-9-x-9-x-7-x-7-x-7-x-7-x-
G-6-x-6-x-7-x-7-x-7-x-7-x-7-x-7-x-9-x-9-x-9-x-9-x-7-x-7-x-7-x-7-x-
D-7-x-7-x-7-x-7-x-7-x-7-x-7-x-7-x-9-x-9-x-9-x-9-x-7-x-7-x-7-x-7-x-
A-----------------------------------------------------------------
E-----------------------------------------------------------------

yea the boys a time bomb
E-----------------------------------------------------------------
B-----------------------------------------------------------------
G-1-1-1-1-1-1-1-1-1-1-1-1-----------------------------------------      
D-2-2-2-2-2-2-2-2-2-2-2-2-----------------------------------------
A-2-2-2-2-2-2-2-2-2-2-2-2-----------------------------------------
E-----------------------------------------------------------------

solo
E----------------------------------------------------------------
B---------33333-2--------33333-2-------33333-2-3-2-3-2-3-2-3-----
G-2-4-2-4---------4-2-4----------4-2-4---------------------------
D----------------------------------------------------------------
A----------------------------------------------------------------
E----------------------------------------------------------------
listen to the song and try to find out where everything goes
Comments