Rancid - Time Bomb Chords & Tabs

 

Time Bomb Chords & Tabs

Rancid Chords & Tabs

Version: 1 Type: Tab 0 ratings
1 star 2 stars 3 stars 4 stars 5 stars
comments

Time Bomb Tab

T1: Jesse, jesse.b@angelfire.com, rancid, time bomb

S1: this is the way i play the song "Time Bomb" by "Rancid". Sorry i am
not including lyrics I don't have the time right now., Intro:
|-----------------------|
|-----------------------|
|-------66-6-------99-9-|
|-9-9-9-77-7-9-9-9-99-9-|
|-9-9-9-77-7-9-9-9-77-7-|
|-7-7-7-55-5-7-7-7------|

The rest of the song is played in a ska rythm.
Listen to the song to perfect it.

Verse:
|---------------|
|---------------|
|-44-4-4-22-2-2-|
|-44-4-4-22-2-2-| Play this 4 times for the verse.
|-22-2-2-00-0-0-|
|---------------|
[ Tab from: http://www.guitartabs.cc/tabs/r/rancid/time_bomb_tab.html ]
Chorus:
|---------------------------------|
|---------------------------------|
|--------77-7-7-7\9-99-9-9-77-7-7-|
|-77-7-7-77-7-7-7\9-99-9-9-77-7-7-|play this twice for the chorus.
|-77-7-7-55-5-5-5\7-77-7-7-55-5-5-|
|-55-5-5--------------------------|

Solo:
|--------------------------------------------------------------------------|
|--------------------------------------------------------------------------|
|--------------------------------------------------------------------------|
|-9-7-9-12121212-11-9-7-9-12121212-11-9-7-9-12121212-11-1212-11-1212-11-12-|
|--------------------------------------------------------------------------|
|--------------------------------------------------------------------------|

ok i beleive thats it.
email me at "jesse.b@angelfire.com" with any comments.
Comments