Rancid - Time Bomb Chords & Tabs

 

Time Bomb Chords & Tabs

Rancid Chords & Tabs

Version: 4 Type: Bass Tab 0 ratings
1 star 2 stars 3 stars 4 stars 5 stars
comments

Time Bomb Bass Tab

|-------------------------------------
|----------------------------2--2--2--
|-2--2--2-----------2--2--2-----------
|----------0--0--0--------------------
Verse:
|----------------------------
|-----0--4--2--4--2--0-----0-
|-2--4------------------4----
|----------------------------

-----------------------------
-------0---------------------
-2--4-----4--0-----------0h4-
----------------0--2--4------

----------------------------
-----0--4--2--4--2--0-----0-
-2--4------------------4----
----------------------------

---------------------------|
-------0-------------------|
-2--4-----4--0-----------2-|
----------------0--2--4----|
[ Tab from: http://www.guitartabs.cc/tabs/r/rancid/time_bomb_btab_ver_4.html ]
Chorus:
|---------------------------------------------------------------
|-------------2--2-----2--0--0--------0--0--1--1--2--5--5--4--4-
|-0--0--4--4--------4-----------4--4----------------------------
|---------------------------------------------------------------

---------------------------|
-2--2--0--0--------0--0--2-|
-------------4--4----------|
---------------------------|

Bridge:
|------------------------|      |------------------------------
|------------------------|play  |----------2--0-----0--1--2--0-
|------------------------|verse |-0--0--4--------4-------------
|-0--0--0--0--0--0--0--0-|      |------------------------------

------------------------------------------------|
----2--4--2-----2-----------2--0-----0--1--2--0-|
-4-----------4-----0--0--4--------4-------------|
------------------------------------------------|
Outro:
|---------------------------------|
|---------------------------------|
|---------------------------------|
|-0--0--0--0--0--0--0--0--5--5--5-|

Intro
Verse
Chorus
Verse
Chorus
Verse
Chorus
Bridge
Verse
Chorus
Outro
Comments