Rancid - The Way I Feel About You Chords & Tabs

 

The Way I Feel About You Chords & Tabs

Rancid Chords & Tabs

Version: 1 Type: Bass Tab 0 ratings
1 star 2 stars 3 stars 4 stars 5 stars
comments

The Way I Feel About You Bass Tab

The Way I Feel About You

RANCID

[ Tab from: http://www.guitartabs.cc/tabs/r/rancid/the_way_i_feel_about_you_btab.html ]
Intro, middle thing, and ending
G:----------------------------------------------------
D:3---2-----------------------------------------------
A:--------5--3--2-------------------------------0-1-2-
E:-----------------5--2-3-3-3-2-3-3-3-2-3-3-3-3-------
Part of intro and "NA NA NA":(23= quick slide from 2 to 3, repeat 1x)
G:-------------------------------------------------------------------
D:-----------------------------2-3-4-5-5-5-5-45-5-5-5-5-5-3-3-2-2----
A:3-3-3-3-23-3-3-3-23-3-3-3-23------------------------------------5-5
E:-------------------------------------------------------------------
Verse: (Play once through, 2nd time end at *)
G:---------------------*-----------------------------------------
D:3-3-3-3-2-2-2-2-5-3-2*-----------3-3-3-3-2-2-2-2---------------
A:---------------------*-5-3-3-3-3-------------------------------
E:---------------------*---------------------------3-3-3-3-3-3-3-
"You say that I'm different...":
G:-------------------------------------
D:-------------------------------------
A:-------------------------------0-1-2-
E:2-3-----2-3----2--1------------------
Slowed down part:
G:------------------------------------------------------------------
D:333-222-555-3-2------2--3--2-------------2-3-222-555-3-2----------
A:-----------------5-3-------------------------------------5-3-3-2--
E:-------------------------------3--3-3-23-------------------------5



Figured out and written out by Fidget *bassist of Half Moon)


Comments