Rancid - Tenderloin Chords & Tabs

 

Tenderloin Chords & Tabs

Rancid Chords & Tabs

Version: 2 Type: Bass Tab 0 ratings
1 star 2 stars 3 stars 4 stars 5 stars
comments

Tenderloin Bass Tab

Rancid
TENDERLOIN
Intro and Chorus:
G:----------------------------------------------------------------
D:----------2-3-4-5-3-2---------------------------------2-3-2-----
A:--2-3-4-5-------------5-3-2-------2-3-4-5-3-2-----2-5-------5-2-
E:3---------------------------5-3-3-------------5-3---------------
Intro, Chorus, Ending: (continued)
G:------------------2-3-4-5-3-2-----------------------------------
D:----------2-3-4-5-------------5-----------------------2-3-2-----
A:--2-3-4-5-------------------------2-3-4-5-3-2-----2-5-------5-2-
E:3-------------------------------3-------------5-3---------------
Verse:
G:----------------------------------------------------------------
D:--------2-2-------------2-2-------------2-2---------------------
A:3-3-3-3-----5-2-------------5-2-3-3-3-3-----5-2---------5-5-5-4-
E:----------------3-3-3-3-------------------------3-3-3-3---------
Verse: (continued)
G:-----------------------------------------------------------------
D:--------2-2-------------2-2--------------------------------------
A:3-3-3-3-----5-2-------------5-2-3-3-3-3-3-3-3-3-4-5-5-5-5-5-3-2--
E:----------------3-3-3-3-----------------------------------------5

Figured out and written by Fidget (bassist of Half Moon)

[ Tab from: http://www.guitartabs.cc/tabs/r/rancid/tenderloin_btab_ver_2.html ]
Comments