Rancid - Something In The World Today Chords & Tabs

 

Something In The World Today Chords & Tabs

Rancid Chords & Tabs

Version: 1 Type: Tab 0 ratings
1 star 2 stars 3 stars 4 stars 5 stars
comments

Something In The World Today Tab

   
Tabbed By:	CorporalHicks

SONG:	Something In The World Today
ALBUM: Life Won't Wait
BAND: Rancid

INTRO - GUITAR ONE
e|------------------------|---------------------|-------------------|
B|------------------------|---------------------|-------------------|
G|------------------------|12-12-12-12-11-11-11-|14---12---11-------|
D|12-12-12-12-12-12-12-12-|12-12-12-12-11-11-11-|14---12---11---12--|
A|12-12-12-12-12-12-12-12-|10-10-10-10--9--9--9-|12---10----9---12--|
E|10-10-10-10-10-10-10-10-|---------------------|---------------10--|

INTRO - GUITAR TWO (during bass) 
e|---------------|
B|---------------|
G|----12------12-|
D|12--12--12--12-|
A|12--10--12--10-|
E|10------10-----|

PICKSLIDE

YEEEEEEAH!

VERSE 1
e|----------------|----------------|----------------|----------------|
B|----------------|----------------|----------------|----------------|
G|7---7-7-7-7-7-7-|7-7-7-7-7-7-7-7-|----------------|----------------|
D|7---7-7-7-7-7-7-|7-7-7-7-7-7-7-7-|3---3-3-3-3-3-3-|3-3-3-3-3-3-3-3-|
A|5---5-5-5-5-5-5-|5-5-5-5-5-5-5-5-|3---3-3-3-3-3-3-|3-3-3-3-3-3-3-3-|
E|----------------|----------------|1---1-1-1-1-1-1-|1-1-1-1-1-1-1-1-|  

e|----------------|----------------|----------------|----------------|
B|----------------|----------------|----------------|----------------|
G|----------------|----------------|7---7-7-7-7-7-7-|7-7-7-7-7-7-7-7-|
D|8---8-8-8-8-8-8-|5---5-5-5-5-5-5-|7---7-7-7-7-7-7-|7-7-7-7-7-7-7-7-|
A|8---8-8-8-8-8-8-|5---5-5-5-5-5-5-|5---5-5-5-5-5-5-|5-5-5-5-5-5-5-5-|
E|6---6-6-6-6-6-6-|3---3-3-3-3-3-3-|----------------|----------------|

e|----------------|----------------|----------------|----------------|
B|----------------|----------------|----------------|----------------|
G|7---7-7-7-7-7-7-|7-7-7-7-7-7-7-7-|----------------|----------------|
D|7---7-7-7-7-7-7-|7-7-7-7-7-7-7-7-|3---3-3-3-3-3-3-|3-3-3-3-3-3-3-3-|
A|5---5-5-5-5-5-5-|5-5-5-5-5-5-5-5-|3---3-3-3-3-3-3-|3-3-3-3-3-3-3-3-|
E|----------------|----------------|1---1-1-1-1-1-1-|1-1-1-1-1-1-1-1-|  

e|----------------|----------------|---------------|-----------------------|
B|----------------|----------------|---------------|-----------------------|
G|----------------|----------------|7---7-7-7-7-7-7|12-12-12-12-12-12-12-12|
D|8---8-8-8-8-8-8-|5---5-5-5-5-5-5-|7---7-7-7-7-7-7|12-12-12-12-12-12-12-12|
A|8---8-8-8-8-8-8-|5---5-5-5-5-5-5-|5---5-5-5-5-5-5|10-10-10-10-10-10-10-10|
E|6---6-6-6-6-6-6-|3---3-3-3-3-3-3-|---------------|-----------------------|
                                                    (follows the rythem of
                                                     bass and drum)
             
There's something in the street tonight
Don't know what it is
But it won't keep quiet
Breaking through your masses on your radio broadcaster 
There's something in the air tonight
And it's turning in to a full fledged riot
Signing for the last dance for someone trying to find the truth

YEEEAH!

CHORUS
e|----------------|----------------|
B|----------------|----------------|
G|7-7-7-7---------|----------------|
D|7-7-7-7-3-3-3-3-|8-8-8-8-5-5-5-5-|
A|5-5-5-5-3-3-3-3-|8-8-8-8-5-5-5-5-|
E|--------1-1-1-1-|6-6-6-6-3-3-3-3-|

Allllllllll nine lives
I'm gonna come right back for you
Allllllllll nine lives
I'm gonna come right back for you
[ Tab from: http://www.guitartabs.cc/tabs/r/rancid/something_in_the_world_today_tab.html ]
VERSE 2
e|----------------|----------------|----------------|----------------|
B|----------------|----------------|----------------|----------------|
G|7---7-7-7-7-7-7-|7-7-7-7-7-7-7-7-|----------------|----------------|
D|7---7-7-7-7-7-7-|7-7-7-7-7-7-7-7-|3---3-3-3-3-3-3-|3-3-3-3-3-3-3-3-|
A|5---5-5-5-5-5-5-|5-5-5-5-5-5-5-5-|3---3-3-3-3-3-3-|3-3-3-3-3-3-3-3-|
E|----------------|----------------|1---1-1-1-1-1-1-|1-1-1-1-1-1-1-1-| 
pm    . . . . . .                       . . . . . .   

e|----------------|----------------|----------------|----------------|
B|----------------|----------------|----------------|----------------|
G|----------------|----------------|7---7-7-7-7-7-7-|7-7-7-7-7-7-7-7-|
D|8---8-8-8-8-8-8-|5---5-5-5-5-5-5-|7---7-7-7-7-7-7-|7-7-7-7-7-7-7-7-|
A|8---8-8-8-8-8-8-|5---5-5-5-5-5-5-|5---5-5-5-5-5-5-|5-5-5-5-5-5-5-5-|
E|6---6-6-6-6-6-6-|3---3-3-3-3-3-3-|----------------|----------------|
  
e|----------------|----------------|----------------|----------------|
B|----------------|----------------|----------------|----------------|
G|7---7-7-7-7-7-7-|7-7-7-7-7-7-7-7-|----------------|----------------|
D|7---7-7-7-7-7-7-|7-7-7-7-7-7-7-7-|3---3-3-3-3-3-3-|3-3-3-3-3-3-3-3-|
A|5---5-5-5-5-5-5-|5-5-5-5-5-5-5-5-|3---3-3-3-3-3-3-|3-3-3-3-3-3-3-3-|
E|----------------|----------------|1---1-1-1-1-1-1-|1-1-1-1-1-1-1-1-|  
pm    . . . . . .                       . . . . . .
e|----------------|----------------|---------------|-----------------------|
B|----------------|----------------|---------------|-----------------------|
G|----------------|----------------|7---7-7-7-7-7-7|12-12-12-12-12-12-12-12|
D|8---8-8-8-8-8-8-|5---5-5-5-5-5-5-|7---7-7-7-7-7-7|12-12-12-12-12-12-12-12|
A|8---8-8-8-8-8-8-|5---5-5-5-5-5-5-|5---5-5-5-5-5-5|10-10-10-10-10-10-10-10|
E|6---6-6-6-6-6-6-|3---3-3-3-3-3-3-|---------------|-----------------------|
                                                    (follows the rythem of
                                                     bass and drum)
   
There's something in the world today
I Don't know what is 
But it sure smells rotten
Babylon's burning and the fire seems water proof
There's someone in your home tonight
You think you know who they are
But something ain't so right
I look at them in a way but they don't feel they same about me

YEEEAH!

CHORUS
e|----------------|----------------|
B|----------------|----------------|
G|7-7-7-7---------|----------------|
D|7-7-7-7-3-3-3-3-|8-8-8-8-5-5-5-5-|
A|5-5-5-5-3-3-3-3-|8-8-8-8-5-5-5-5-|
E|--------1-1-1-1-|6-6-6-6-3-3-3-3-|

Allllllllll nine lives
I'm gonna come right back for you
Allllllllll nine lives
I'm gonna come right back for you

BRIDGE - Guitar One
e|------------------------|---------------------|-------------------|
B|------------------------|---------------------|-------------------|
G|------------------------|12-12-12-12-11-11-11-|14---12---11-------|
D|12-12-12-12-12-12-12-12-|12-12-12-12-11-11-11-|14---12---11---12--|
A|12-12-12-12-12-12-12-12-|10-10-10-10--9--9--9-|12---10----9---12--|
E|10-10-10-10-10-10-10-10-|---------------------|---------------10--|

BRIDGE - GUITAR TWO
e|----------------|----------------|----------------|----------------|
B|----------------|----------------|----------------|----------------|
G|7-7-7-7-7-7-7-7-|7-7-7-7-7-7-7-7-|----------------|----------------|
D|7-7-7-7-7-7-7-7-|7-7-7-7-7-7-7-7-|5-5-5-5-5-5-5-5-|5-5-5-5-5-5-5-5-|
A|5-5-5-5-5-5-5-5-|5-5-5-5-5-5-5-5-|5-5-5-5-5-5-5-5-|5-5-5-5-5-5-5-5-|
E|----------------|----------------|3-3-3-3-3-3-3-3-|3-3-3-3-3-3-3-3-|

And I run and I run and I ride and I ride
And I live and I live and I die and I die
And I know it was all for you and me

END ON
e|---|
B|---|
G|12-|
D|12-|
A|10-|
E|---|

-----------------

INTRO GUITAR ONE -      X4

INTRO GUITAR TWO - 	X1

VERSE 1	     -          X2

CHORUS	     - 	        X4

VERSE 2	     -  	X2

CHORUS	     -          X4

INTRO GUITAR ONE - 	X2

INTRO GUITAR TWO - 	X1

OUTRO GUITAR ONE -   	X8

OUTRO GUITAR TWO -     	X4

END ON       - 	        X1

------------------------------------------------------

Please Rate
Comments