Rancid - Solidarity Chords & Tabs

 

Solidarity Chords & Tabs

Rancid Chords & Tabs

Version: 1 Type: Bass Tab 0 ratings
1 star 2 stars 3 stars 4 stars 5 stars
comments

Solidarity Bass Tab

   
Rancid
Solidarity

Intro: (Repeat once, Pick quickly more than numbers are repeated)
G:-----------------------------
D:-----------------------------
A:3-3-3-3---------3-3-5--------
E:--------5-5-5-5-------1-1-1-1

Chorus: (Repeat once)
G:----------------
D:----------------
A:3-----------3---
E:----3---1-------
[ Tab from: http://www.guitartabs.cc/tabs/r/rancid/solidarity_btab.html ]
Verse:
G:---------------------------------
D:---------------------------------
A:3-3-3-3-3-3-3-2-1-1-1-3---0-1-2-3
E:------------------------1--------

Guitar Thing:
G:-------------------------------
D:5-5-5-5-2-2-2-2-5-5-5-5-5-5-5-5
A:-------------------------------
E:-------------------------------

Figured out and written by Fidget (bassist of Half Moon)

Comments