Rancid - Smiling Chords & Tabs

 

Smiling Chords & Tabs

Rancid Chords & Tabs

Version: 1 Type: Bass Tab 0 ratings
1 star 2 stars 3 stars 4 stars 5 stars
comments

Smiling Bass Tab

#----------------------------------PLEASE NOTE---------------------------------#
#This file is the author's own work and represents their interpretation of the #
#song. You may only use this file for private study, scholarship, or research. #
#------------------------------------------------------------------------------#

Song: Smiling
Artists: Operation Ivy

Intro
G----------------------------------------------------------------
D----------------------------------------------------------------
A-----------------------------------------------5-5-5-5-5-5-5-5--
E--1-1-1-1-1------1-1-1-1-1------1-1-1-1-1-----------------------
[ Tab from: http://www.guitartabs.cc/tabs/r/rancid/smiling_btab.html ]
Verse
G-----------------------------------------------------
D-----------------------2-2--3--3-3-2-0--1-1-1-1-0----
A----2--5-5-5--3-3-3-3-----------------------------3--
E--3--------------------------------------------------

Pre-Chorus
G--------------------------------
D--------------------3--3-3-3----
A-----------3-3-3-3-----------5--
E--3-3-3-3-----------------------

Chorus
G----------------------------*-------------
D----------------------------*-------------
A----0-2-3-3-2-0------0-2-3--*-------------
E--3-------------3--3--------*--1-1-1-1-1--

Interlude
G------------------------------5-3-0-------5-3-0--------------------------
D------5-3-0-------5-3-0-------------------------------5-3-0-------5-3-0--
A--------------------------3-----------3----------------------------------
E--3-----------3-----------------------------------3-----------3----------

G-----------------------------------
D-----------------------------------
A--5-5-5-5-5-5-5-5-5-5-5-5-5-5-5-5--
E-----------------------------------

Have fun!!!

For questions: mc_call@email.it

Comments