Rancid - Sidekick Chords & Tabs

 

Sidekick Chords & Tabs

Rancid Chords & Tabs

Version: 3 Type: Bass Tab 0 ratings
1 star 2 stars 3 stars 4 stars 5 stars
comments

Sidekick Bass Tab

Intro:
G----------------------------------------------------------
D-------------------5-----------------5-7-6-5--------------
A------3------5-6-7-------3-----5-6-7---------7-6-5-3------
E--5-5---3-5----------5-5---3-5-----------------------5-3-0

Chorus 1:
G---------------------------------------------------------------
D--------------------------------------------------5-3-5-4-3-2-0
A----------3-3-3-3-------------------------3-3-3-3--------------
E--5-5-5-5---------3-3-3-3-1-1-1-1-5-5-5-5----------------------
[ Tab from: http://www.guitartabs.cc/tabs/r/rancid/sidekick_btab_ver_3.html ]
Verse 1:
G-----------------------------------------------------------------------
D-----------------------------------------------------------------------
A--3---------------2-3-3-3-3-3-3-3-3-----------------------------------2
E-----0--1--2-3--3-------------------0-0-0-0-0-0-0-0-1-1-1-1-2-3-3-3-3--

Verse 2:
G-----------2-0-----------2-0-----------0-2-0-0-0-0-0------
D---------------2-2-2-2-2-----3-3-3-3-3---------------3-2-0
A-3-3-3-3-3------------------------------------------------
E----------------------------------------------------------

Chorus 2:
G---------------------------------------------------------------
D--------------------------------------------------5-3-5-4-3-2-0
A--0-0-0-0-3-3-3-3-----------------0-0-0-0-3-3-3-3--------------
E------------------3-3-3-3-1-1-1-1------------------------------

Song Order:
Intro    x 1
Chorus 1 x 2
Verse 1  x 1
Verse 2  x 2
Chorus 2 x 2
Verse 1  x 1
Verse 2  x 2
Chorus 2 x 2
Intro    x 1

I Know this tab is right! Please rate it
Comments