Rancid - Sidekick Chords & Tabs

 

Sidekick Chords & Tabs

Rancid Chords & Tabs

Version: 1 Type: Bass Tab 0 ratings
1 star 2 stars 3 stars 4 stars 5 stars
comments

Sidekick Bass Tab

Rancid
Sidekick


Intro and ending:
G:---------------------------------------------------------------------------
D:--------------------5----------------------5---7--6--5---------------------
A:---3----------5-6-7--------3---------5-6-7--------------7--6--5------------
E:5-----5-3--5------------5-----5-3--5-----------------------------7--6--5--0

Chorus:(Repeat once)
G:----------------------------------------------------------------
D:------------------------------------------------5-4-5-4--3--2---
A:--------3-3-3-3-------------------------3-3-3-3----------------5
E:5-5-5-5---------3-3-3-3-1-1-1-3-5-5-5-5-------------------------
[ Tab from: http://www.guitartabs.cc/tabs/r/rancid/sidekick_btab.html ]
Verse:
G:---------------------------------------------------------------------------
D:---------------------------------------------------------------------------
A:3-------------------0-1-2-3-3-3-3-3-3-3-3----------------------------------
E:-----0----1----3--------------------------0-0-0-0-0-0-0-0-1-1-1-1-1-1-1-2-3

Verse continued:
G:---------------*------------------------------------------
D:---------------*----------575-------------575-------------
A:----------0-1-2*3-3-3-3-3-----5-7-7-7-7-7-----7-8-8-8-8-8-
E:3-3-3-3-3------*------------------------------------------

Verse continued: Repeat part after * once
G:----------------------
D:-----4-5-5-5-5-5-3-2--
A:-8-8-----------------5
E:----------------------

Figured out and written by Fidget


Comments