Rancid - Ruby Soho Chords & Tabs

 

Ruby Soho Chords & Tabs

Rancid Chords & Tabs

Version: 1 Type: Tab 0 ratings
1 star 2 stars 3 stars 4 stars 5 stars
comments

Ruby Soho Tab

RUBY SOHO
RANCID
SUBMITTED BY: PETER SHILALE
IF ANY QUESIONS EMAIL ME AT LINTOPIV@aol.com

INTRO

e--3----------------------
b--3----------------------
g--0-----------444-555----
d--0-------555-444-555-5--
a--0-------555-222-333-5--
e--3-------333---------3--(x2)

 VERSE

e----------------------------------------
b----------------------------------------
g--5555555--7777777-----------55555555---
d--5555555--7777777--5555555--55555555---
a--3333333--5555555--5555555--33333333---
e--------------------3333333-------------(x3)
[ Tab from: http://www.guitartabs.cc/tabs/r/rancid/ruby_soho_tab.html ]
         on the last time...
e----------------------------------------
b----------------------------------------
g--5555555-------------77777777----------
d--5555555----5555555--77777777----------
a--3333333----5555555--55555555----------
e-------------3333333--------------------

 CHORUS
e------------------
b------------------
g-------444-555----
d---555-444-555-5--
a---555-222-333-5--
e---333---------3--(x4)

 BRIDGE

e------------
b------------
g--55-3-5----
d--55-3-5----
a--33-1-3----
e------------(x2)

 SOLO

e--33333333333333333-
b--33333333333333333-
g--55555555555555555-
d--------------------
a--------------------
e--------------------
      (unison bend the solo)







Comments