Rancid - Ruby Soho Chords & Tabs

 

Ruby Soho Chords & Tabs

Rancid Chords & Tabs

Version: 5 Type: Bass Tab 0 ratings
1 star 2 stars 3 stars 4 stars 5 stars
comments

Ruby Soho Bass Tab

here you go

intro

|----------------------|
|-5-4-2-0-0------------|
|----------2-0---52535-|   x2
|--------------3------3|

verse

|----------------------------------------------------------------------|
|-----0345-3-0-------------------0-----------0345-3-0------------------|
|-3-5---------20-3-0203-5-53---2--20--0203-5---------20-3-0203----53-20|
|---------------3-----------53------3--------------------------3-------|

chorus

|----------------------|
|----------------------|
|---52-53-5----52-53-5-| x2
|-3--------3-3--------3|

verse
[ Tab from: http://www.guitartabs.cc/tabs/r/rancid/ruby_soho_btab_ver_5.html ]
|----------------------------------------------------------------------|
|-----0345-3-0-------------------0-----------0345-3-0------------------|
|-3-5---------20-3-0203-5-53---2--20--0203-5---------20-3-0203----53-20|
|---------------3-----------53------3--------------------------3-------|

chorus

|----------------------|
|----------------------| 
|---52-53-5----52-53-5-| x2
|-3--------3-3--------3|

bridge

|----------035555555555555320---------035555555555555320|
|-3313-3313------------------3313-3313------------------|
|-------------------------------------------------------|
|-------------------------------------------------------|

verse

|----------------------------------------------------------------------|
|-----0345-3-0-------------------0-----------0345-3-0------------------|
|-3-5---------20-3-0203-5-53---2--20--0203-5---------20-3-0203----53-20|
|---------------3-----------53------3--------------------------3-------|


chorus

|----------------------|
|----------------------| x4
|---52-53-5----52-53-5-|
|-3--------3-3--------3|
Comments