Rancid - Ruby Soho Chords & Tabs

 

Ruby Soho Chords & Tabs

Rancid Chords & Tabs

Version: 4 Type: Bass Tab 0 ratings
1 star 2 stars 3 stars 4 stars 5 stars
comments

Ruby Soho Bass Tab

I'm sorry to say that these tabs are probably better than the others-Don't mean tp be cocky
Intro:
|------------------------------------------------------
|-5--4--2--0--0--------------0--------0----------------
|----------------2--0-----2-----2--2-----3--3--3--2----
|----------------------3-----------------------------3-

------------------------------------------------------|
-5--4--2--0--0--------------0--------0----------------|
----------------2--0-----2-----2--2-----3--3--3--2----|
----------------------3-----------------------------3-|

Verse:
|---------------------------------------
|-------0--2--4--5--3--2--0-------------
|-3--5-----------------------3--0--2--0-
|---------------------------------------

---------------------------------------
----------------------0----------------
-3--5--3--2--0-----2-----3--3--0--2--0-
----------------3----------------------

---------------------------------------
-------0--2--4--5--3--2--0-------------
-3--5-----------------------3--0--2--0-
---------------------------------------
[ Tab from: http://www.guitartabs.cc/tabs/r/rancid/ruby_soho_btab_ver_4.html ]
---------------------|
---------------------|
-3--5-----5--3--2--0-|
-------3-------------|

Chorus:
|------------------------------------------------------------------------
|------0--------0-----------------------0--------0--------------3h5--3h5-
|---2-----2--2-----3--3--3--2--------2-----2--2-----3--3--3--3-----------
|-3----------------------------3--3--------------------------------------

----------------------------------------------------------------|
------0--------0----------------------0--------0----------------|
---2-----2--2-----3--3--3--2-------2-----2--2-----3--3--3--2----|
-3-------------------------------3------------------------------|

Bridge:
|------------------------------------------------------------------------|
|-------------------------------5--5--5--5--5--5--5--5--5--5--5--3--2--0-|
|-3--3--1h3--3--3--1h3--3--3/5-------------------------------------------|
|------------------------------------------------------------------------|

Outro:
|---|
|---|
|-3-|
|---|

Intro
verse
chorus
verse
chorus
bridge
Verse
Chorus
(silent moment)
chorus
Outro
Comments