Rancid - Red Hot Moon Chords & Tabs

 

Red Hot Moon Chords & Tabs

Rancid Chords & Tabs

Version: 1 Type: Tab 0 ratings
1 star 2 stars 3 stars 4 stars 5 stars
comments

Red Hot Moon Tab

   
Rancid
"Red Hot Moon"
Indestructible
Tabbed by Paul


Intro
Gtr.1
E|---------------------------------------------------------------------||
B|---------------------------------------------------------------------||
G|------5-5~~~-----5-7b(9)(9)(9)(9)(9)r7-5-5----5-5-------5-----7-9-7-5||
D|--5h7--------5h7----------------------------------7-5-7--------------||
A|---------------------------------------------------------------------||
E|---------------------------------------------------------------------||

Gtr.2
        |  C5  |   F5  |       G5      |   C5  |   F5  |     G5        |
E|---------------------------------------------------------------------||
B|---------------------------------------------------------------------||
G|------5-5-5-5-------------------------5-5-5-5------------------------||
D|------5-5-5-5-3-3-3-3-5-5-5-5-5-5-5-5-5-5-5-5-3-3-3-3-5-5-5-5-5-5-5-5||
A|------3-3-3-3-3-3-3-3-5-5-5-5-5-5-5-5-3-3-3-3-3-3-3-3-5-5-5-5-5-5-5-5||
E|--------------1-1-1-1-3-3-3-3-3-3-3-3---------1-1-1-1-3-3-3-3-3-3-3-3||
PM      ...............................................................

Chorus
Gtr.1 and Gtr.2
        Under the red hot moon          Under the red hot moon 
E|---------------------------------------------------------------------||
B|---------------------------------------------------------------------||
G|------5-5-5-5-------------------------5-5-5-5------------------------||
D|------5-5-5-5-3-3-3-3-5-5-5-5-5-5-5-5-5-5-5-5-3-3-3-3-5-5-5-5-5-5-5-5||
A|------3-3-3-3-3-3-3-3-5-5-5-5-5-5-5-5-3-3-3-3-3-3-3-3-5-5-5-5-5-5-5-5||
E|--------------1-1-1-1-3-3-3-3-3-3-3-3---------1-1-1-1-3-3-3-3-3-3-3-3||
PM      ...............................................................
[ Tab from: http://www.guitartabs.cc/tabs/r/rancid/red_hot_moon_tab.html ]
Verse
 |      A      |     F     |     D     |     F     |
E|--0-0-0-0-0-0-1-1-1-1-1-1-2-2-2-2-2-2-1-1-1-1-1-1--------------------||
B|--2-2-2-2-2-2-1-1-1-1-1-1-3-3-3-3-3-3-1-1-1-1-1-1--------------------||
G|--2-2-2-2-2-2-3-3-3-3-3-3-2-2-2-2-2-2-3-3-3-3-3-3--------------------||
D|--2-2-2-2-2-2-4-4-4-4-4-4-0-0-0-0-0-0-4-4-4-4-4-4--------------------||
A|--0-0-0-0-0-0--------------------------------------------------------||
E|---------------------------------------------------------------------||
PM  ...   ...   ...   ...   ...   ...   ...   ... 
That is played 3 times, the last time plays a G instead of the last F
 |     A       |     F     |     D     |     G     | 
E|--0-0-0-0-0-0-1-1-1-1-1-1-2-2-2-2-2-2-3-3-3-3-3-3--------------------||
B|--2-2-2-2-2-2-1-1-1-1-1-1-3-3-3-3-3-3-3-3-3-3-3-3--------------------||
G|--2-2-2-2-2-2-3-3-3-3-3-3-2-2-2-2-2-2-0-0-0-0-0-0--------------------||
D|--2-2-2-2-2-2-4-4-4-4-4-4-0-0-0-0-0-0-0-0-0-0-0-0--------------------||
A|--0-0-0-0-0-0-------------------------2-2-2-2-2-2--------------------||
E|--------------------------------------3-3-3-3-3-3--------------------||
PM  ...   ...   ...   ...   ...   ...   ...   ...

Chorus

Verse

Chorus

Verse

Chorus

Interlude (with Rob Aston)
        |  C5  |   F5  |       G5      |   C5  |   F5  |     G5        |
E|---------------------------------------------------------------------||
B|---------------------------------------------------------------------||
G|------5-5-5-5-------------------------5-5-5-5------------------------||
D|------5-5-5-5-3-3-3-3-5-5-5-5-5-5-5-5-5-5-5-5-3-3-3-3-5-5-5-5-5-5-5-5||
A|------3-3-3-3-3-3-3-3-5-5-5-5-5-5-5-5-3-3-3-3-3-3-3-3-5-5-5-5-5-5-5-5||
E|--------------1-1-1-1-3-3-3-3-3-3-3-3---------1-1-1-1-3-3-3-3-3-3-3-3||
PM      ...............................................................
(This plays 6 times before fade out)
Comments