Rancid - Radio Havana Chords & Tabs

 

Radio Havana Chords & Tabs

Rancid Chords & Tabs

Version: 1 Type: Bass Tab 0 ratings
1 star 2 stars 3 stars 4 stars 5 stars
comments

Radio Havana Bass Tab

Song:  Radio Havana
Album: Rancid 2000
By:    BassD			>=play a couple time

This is the coolest song off the album(what I think).
It has a ska-like beat and his so fun to play.
Enjoy!

Intro/verse1
G|----------------------------------2-2-0---0-0--------------------|
D|-----------2-2-5--5-2-0-----2-2-5-------2-----2-0----------------|
A|-----0-0-3--------------3-3--------------------------------------|
E|-1-1-------------------------------------------------------------|

G|----------------------------------2-2-0---0-0-----------------|
D|-----------2-2-5--5-2-0-----2-2-5-------2-----2-0-------------|
A|-----0-0-3--------------3-3-----------------------------------|
E|-1-1----------------------------------------------------------|

G|----------------------------------2-2-0-------------------------|
D|-----------2-2-5--5-2-0-----2-2-5-------2-0---------------------|
A|-----0-0-3--------------3-3-----------------3-------------------|
E|-1-1------------------------------------------------------------|

G|----------------------------4---------|
D|------------------------5-7-----------|
A|-3>-0--0----3>-0--0-------------------|
E|---------3----------3-----------------|

Chorus x2
G|-5>-7---------------------|
D|------5>-7>---------------|
A|------------5-7>----------|
E|--------------------------|

(Verse 1)

(Chorus x2)

"Yeah I go It right x2"
G|-----------------------------------------------------|
D|----13-14-15----15---------13-14-15----15------------|
A|-15----------15-----8---15----------15-----8---------|
E|-----------------------------------------------------|
[ Tab from: http://www.guitartabs.cc/tabs/r/rancid/radio_havana_btab.html ]
G|----15-16-17----17---------15-16-17----17------------------|
D|-17----------17---------17----------17---------------------|
A|-------------------15---------------------15---------------|
E|-----------------------------------------------------------|

Verse2
G|--------------------------------------|
D|--------------------------------------|
A|----3>-0>--------3>-0>----------------|
E|-1>-------3>--1>-------3>-------------|

G|--------------------------------------------|
D|--------------------------------------------|
A|----3>-0>-----3>-0>----3>-0>----------------|
E|-1>-------3>--------3>-------3>-------------|

"Mexicain background voice" x4
G|------------------------------------------------------|
D|----13-14-15----15---------13-14-15----15-------------|
A|-15----------15-----8---15----------15-----8----------|
E|------------------------------------------------------|

G|----15-16-17----17---------15-16-17----17---------------|
D|-17----------17---------17----------17------------------|
A|-------------------15---------------------15------------|
E|--------------------------------------------------------|

End with this part the fourth time
G|----15-16-17----17---------15-16-17----17--------------------4--------|
D|-17----------17---------17----------17-------------------5-7----------|
A|-------------------15---------------------15-----0>-------------------|
E|----------------------------------------------------3>----------------|

End with chorus x6
G|-5>-7----------------------|
D|------5>-7>----------------|
A|------------5-7>-----------|
E|---------------------------|
The after the 6 time do
G|-------------------------------|
D|-------------------------------|
A|-8-7-5-3---2-3-5-0-------------|
E|---------3---------------------|

If any questions email-me=rancid_ska@hotmail.com

===============================================================================

Comments